ISO-10303-21;
HEADER;
FILE_DESCRIPTION (( 'STEP AP214' ),
    '1' );
FILE_NAME ('80W-Barrel 3 Stave Skin 2.STEP',
    '2013-04-17T20:34:53',
    ( 'Windows User' ),
    ( 'Los Alamos National Laboratory' ),
    'SwSTEP 2.0',
    'SolidWorks 2013',
    '' );
FILE_SCHEMA (( 'AUTOMOTIVE_DESIGN' ));
ENDSEC;

DATA;
#1 = ORIENTED_EDGE ( 'NONE', *, *, #154, .T. ) ;
#2 = VECTOR ( 'NONE', #256, 1000.000000000000000 ) ;
#3 = LINE ( 'NONE', #28, #146 ) ;
#4 = LINE ( 'NONE', #220, #225 ) ;
#5 = VERTEX_POINT ( 'NONE', #22 ) ;
#6 = ADVANCED_FACE ( 'NONE', ( #262 ), #162, .T. ) ;
#7 = DIRECTION ( 'NONE',  ( -0.0000000000000000000, -0.0000000000000000000, 1.000000000000000000 ) ) ;
#8 = CARTESIAN_POINT ( 'NONE',  ( 160.0999999999999900, -18.05000000000000800, 0.0000000000000000000 ) ) ;
#9 = VERTEX_POINT ( 'NONE', #90 ) ;
#10 = DIRECTION ( 'NONE',  ( -0.0000000000000000000, -0.0000000000000000000, -1.000000000000000000 ) ) ;
#11 = CARTESIAN_POINT ( 'NONE',  ( 160.0999999999999900, 18.04999999999999400, 0.0000000000000000000 ) ) ;
#12 = UNCERTAINTY_MEASURE_WITH_UNIT (LENGTH_MEASURE( 1.000000000000000100E-005 ), #19, 'distance_accuracy_value', 'NONE');
#13 = VECTOR ( 'NONE', #245, 1000.000000000000000 ) ;
#14 = DIRECTION ( 'NONE',  ( -0.0000000000000000000, -0.0000000000000000000, -1.000000000000000000 ) ) ;
#15 = EDGE_CURVE ( 'NONE', #29, #229, #45, .T. ) ;
#16 = CARTESIAN_POINT ( 'NONE',  ( 160.0999999999999900, -2.500000000000000400, 0.4079999999999986400 ) ) ;
#17 = PLANE ( 'NONE',  #82 ) ;
#18 = ORIENTED_EDGE ( 'NONE', *, *, #228, .F. ) ;
#19 =( LENGTH_UNIT ( ) NAMED_UNIT ( * ) SI_UNIT ( .MILLI., .METRE. ) );
#20 = COLOUR_RGB ( '',1.000000000000000000, 1.000000000000000000, 1.000000000000000000 ) ;
#21 =( NAMED_UNIT ( * ) SI_UNIT ( $, .STERADIAN. ) SOLID_ANGLE_UNIT ( ) );
#22 = CARTESIAN_POINT ( 'NONE',  ( -160.0999999999999900, 18.04999999999999400, 0.4079999999999986400 ) ) ;
#23 = FACE_OUTER_BOUND ( 'NONE', #227, .T. ) ;
#24 = ORIENTED_EDGE ( 'NONE', *, *, #129, .F. ) ;
#25 = AXIS2_PLACEMENT_3D ( 'NONE', #193, #217, #99 ) ;
#26 = PRESENTATION_STYLE_ASSIGNMENT (( #75 ) ) ;
#27 = EDGE_CURVE ( 'NONE', #250, #29, #3, .T. ) ;
#28 = CARTESIAN_POINT ( 'NONE',  ( 160.0999999999999900, 2.500000000000000400, -9.591999999999997000 ) ) ;
#29 = VERTEX_POINT ( 'NONE', #70 ) ;
#30 = VECTOR ( 'NONE', #10, 1000.000000000000000 ) ;
#31 = DIRECTION ( 'NONE',  ( 1.000000000000000000, 0.0000000000000000000, 0.0000000000000000000 ) ) ;
#32 = PLANE ( 'NONE',  #165 ) ;
#33 = CARTESIAN_POINT ( 'NONE',  ( 160.0999999999999900, -6.938893903907228400E-015, -9.591999999999997000 ) ) ;
#34 = VERTEX_POINT ( 'NONE', #93 ) ;
#35 = CARTESIAN_POINT ( 'NONE',  ( 160.0999999999999900, -18.05000000000000800, 0.4079999999999986400 ) ) ;
#36 = ORIENTED_EDGE ( 'NONE', *, *, #270, .F. ) ;
#37 = CARTESIAN_POINT ( 'NONE',  ( 160.0999999999999900, 18.04999999999999400, 0.0000000000000000000 ) ) ;
#38 = CARTESIAN_POINT ( 'NONE',  ( -160.0999999999999900, 18.04999999999999400, 0.4079999999999986400 ) ) ;
#39 = DIRECTION ( 'NONE',  ( -1.000000000000000000, 0.0000000000000000000, 0.0000000000000000000 ) ) ;
#40 = PRODUCT_DEFINITION_SHAPE ( 'NONE', 'NONE',  #200 ) ;
#41 =( NAMED_UNIT ( * ) SI_UNIT ( $, .STERADIAN. ) SOLID_ANGLE_UNIT ( ) );
#42 = DIRECTION ( 'NONE',  ( 0.0000000000000000000, 0.0000000000000000000, 1.000000000000000000 ) ) ;
#43 = EDGE_CURVE ( 'NONE', #250, #155, #248, .T. ) ;
#44 = ORIENTED_EDGE ( 'NONE', *, *, #183, .T. ) ;
#45 = LINE ( 'NONE', #204, #92 ) ;
#46 = ORIENTED_EDGE ( 'NONE', *, *, #183, .F. ) ;
#47 = ADVANCED_FACE ( 'NONE', ( #81 ), #235, .F. ) ;
#48 = PLANE ( 'NONE',  #136 ) ;
#49 = AXIS2_PLACEMENT_3D ( 'NONE', #38, #196, #78 ) ;
#50 = SURFACE_STYLE_FILL_AREA ( #52 ) ;
#51 = DIRECTION ( 'NONE',  ( 0.0000000000000000000, 0.0000000000000000000, 1.000000000000000000 ) ) ;
#52 = FILL_AREA_STYLE ('',( #174 ) ) ;
#53 = DIRECTION ( 'NONE',  ( -0.0000000000000000000, 1.000000000000000000, -0.0000000000000000000 ) ) ;
#54 = VERTEX_POINT ( 'NONE', #8 ) ;
#55 = ORIENTED_EDGE ( 'NONE', *, *, #244, .F. ) ;
#56 = DIRECTION ( 'NONE',  ( -0.0000000000000000000, -0.0000000000000000000, -1.000000000000000000 ) ) ;
#57 = ORIENTED_EDGE ( 'NONE', *, *, #167, .F. ) ;
#58 = APPLICATION_CONTEXT ( 'automotive_design' ) ;
#59 = EDGE_LOOP ( 'NONE', ( #195, #211, #205, #105 ) ) ;
#60 = APPLICATION_PROTOCOL_DEFINITION ( 'draft international standard', 'automotive_design', 1998, #58 ) ;
#61 = UNCERTAINTY_MEASURE_WITH_UNIT (LENGTH_MEASURE( 1.000000000000000100E-005 ), #216, 'distance_accuracy_value', 'NONE');
#62 = VECTOR ( 'NONE', #56, 1000.000000000000000 ) ;
#63 = CARTESIAN_POINT ( 'NONE',  ( -160.0999999999999900, -18.05000000000000800, 0.4079999999999986400 ) ) ;
#64 =( GEOMETRIC_REPRESENTATION_CONTEXT ( 3 ) GLOBAL_UNCERTAINTY_ASSIGNED_CONTEXT ( ( #12 ) ) GLOBAL_UNIT_ASSIGNED_CONTEXT ( ( #19, #158, #41 ) ) REPRESENTATION_CONTEXT ( 'NONE', 'WORKASPACE' ) );
#65 = ORIENTED_EDGE ( 'NONE', *, *, #117, .T. ) ;
#66 = LINE ( 'NONE', #73, #207 ) ;
#67 = LINE ( 'NONE', #218, #62 ) ;
#68 = ORIENTED_EDGE ( 'NONE', *, *, #209, .F. ) ;
#69 = ADVANCED_FACE ( 'NONE', ( #238 ), #48, .F. ) ;
#70 = CARTESIAN_POINT ( 'NONE',  ( 160.0999999999999900, 2.500000000000000400, 0.4079999999999986400 ) ) ;
#71 = CARTESIAN_POINT ( 'NONE',  ( -160.0999999999999900, -18.05000000000000800, 0.4079999999999986400 ) ) ;
#72 = DIRECTION ( 'NONE',  ( 0.0000000000000000000, 0.0000000000000000000, 1.000000000000000000 ) ) ;
#73 = CARTESIAN_POINT ( 'NONE',  ( 160.0999999999999900, 18.04999999999999400, 0.4079999999999986400 ) ) ;
#74 = VECTOR ( 'NONE', #77, 1000.000000000000000 ) ;
#75 = SURFACE_STYLE_USAGE ( .BOTH. , #192 ) ;
#76 = EDGE_CURVE ( 'NONE', #229, #155, #126, .T. ) ;
#77 = DIRECTION ( 'NONE',  ( -0.0000000000000000000, -0.0000000000000000000, 1.000000000000000000 ) ) ;
#78 = DIRECTION ( 'NONE',  ( -0.0000000000000000000, 0.0000000000000000000, -1.000000000000000000 ) ) ;
#79 = ORIENTED_EDGE ( 'NONE', *, *, #228, .T. ) ;
#80 = CARTESIAN_POINT ( 'NONE',  ( 160.0999999999999900, -2.499999999999998700, 0.0000000000000000000 ) ) ;
#81 = FACE_OUTER_BOUND ( 'NONE', #113, .T. ) ;
#82 = AXIS2_PLACEMENT_3D ( 'NONE', #157, #39, #179 ) ;
#83 = APPLICATION_CONTEXT ( 'automotive_design' ) ;
#84 = LINE ( 'NONE', #35, #240 ) ;
#85 = ORIENTED_EDGE ( 'NONE', *, *, #252, .T. ) ;
#86 = AXIS2_PLACEMENT_3D ( 'NONE', #63, #109, #253 ) ;
#87 = EDGE_CURVE ( 'NONE', #155, #221, #197, .T. ) ;
#88 = ADVANCED_FACE ( 'NONE', ( #223 ), #32, .F. ) ;
#89 = PRESENTATION_STYLE_ASSIGNMENT (( #123 ) ) ;
#90 = CARTESIAN_POINT ( 'NONE',  ( -160.0999999999999900, -18.05000000000000800, 0.4079999999999986400 ) ) ;
#91 = ORIENTED_EDGE ( 'NONE', *, *, #43, .F. ) ;
#92 = VECTOR ( 'NONE', #169, 1000.000000000000000 ) ;
#93 = CARTESIAN_POINT ( 'NONE',  ( 160.0999999999999900, -18.05000000000000800, 0.4079999999999986400 ) ) ;
#94 = DIRECTION ( 'NONE',  ( 0.0000000000000000000, -0.0000000000000000000, 1.000000000000000000 ) ) ;
#95 = CARTESIAN_POINT ( 'NONE',  ( -160.0999999999999900, 18.04999999999999400, 0.4079999999999986400 ) ) ;
#96 = VERTEX_POINT ( 'NONE', #149 ) ;
#97 = CARTESIAN_POINT ( 'NONE',  ( 160.0999999999999900, -6.938893903907228400E-015, 0.0000000000000000000 ) ) ;
#98 =( NAMED_UNIT ( * ) PLANE_ANGLE_UNIT ( ) SI_UNIT ( $, .RADIAN. ) );
#99 = DIRECTION ( 'NONE',  ( 0.0000000000000000000, -0.0000000000000000000, -1.000000000000000000 ) ) ;
#100 = ORIENTED_EDGE ( 'NONE', *, *, #15, .T. ) ;
#101 = DIRECTION ( 'NONE',  ( 1.000000000000000000, 0.0000000000000000000, 0.0000000000000000000 ) ) ;
#102 = FILL_AREA_STYLE ('',( #222 ) ) ;
#103 = LINE ( 'NONE', #177, #124 ) ;
#104 = EDGE_CURVE ( 'NONE', #229, #5, #138, .T. ) ;
#105 = ORIENTED_EDGE ( 'NONE', *, *, #76, .F. ) ;
#106 = ORIENTED_EDGE ( 'NONE', *, *, #129, .T. ) ;
#107 = STYLED_ITEM ( 'NONE', ( #89 ), #232 ) ;
#108 = FACE_OUTER_BOUND ( 'NONE', #59, .T. ) ;
#109 = DIRECTION ( 'NONE',  ( -0.0000000000000000000, 0.0000000000000000000, 1.000000000000000000 ) ) ;
#110 = AXIS2_PLACEMENT_3D ( 'NONE', #111, #148, #31 ) ;
#111 = CARTESIAN_POINT ( 'NONE',  ( -160.0999999999999900, -18.05000000000000800, 0.0000000000000000000 ) ) ;
#112 = DIRECTION ( 'NONE',  ( -1.000000000000000000, -0.0000000000000000000, -0.0000000000000000000 ) ) ;
#113 = EDGE_LOOP ( 'NONE', ( #91, #106, #57, #260, #164, #241 ) ) ;
#114 = CIRCLE ( 'NONE', #147, 2.500000000000002200 ) ;
#115 = DIRECTION ( 'NONE',  ( 1.000000000000000000, 0.0000000000000000000, 0.0000000000000000000 ) ) ;
#116 = VECTOR ( 'NONE', #156, 1000.000000000000000 ) ;
#117 = EDGE_CURVE ( 'NONE', #29, #247, #114, .T. ) ;
#118 = ORIENTED_EDGE ( 'NONE', *, *, #27, .T. ) ;
#119 = DIRECTION ( 'NONE',  ( 0.0000000000000000000, -1.000000000000000000, 0.0000000000000000000 ) ) ;
#120 = PLANE ( 'NONE',  #49 ) ;
#121 = CARTESIAN_POINT ( 'NONE',  ( 160.0999999999999900, 2.500000000000000400, 0.0000000000000000000 ) ) ;
#122 = PRESENTATION_LAYER_ASSIGNMENT (  '', '', ( #107 ) ) ;
#123 = SURFACE_STYLE_USAGE ( .BOTH. , #246 ) ;
#124 = VECTOR ( 'NONE', #119, 1000.000000000000000 ) ;
#125 = EDGE_LOOP ( 'NONE', ( #85, #184, #36, #150 ) ) ;
#126 = LINE ( 'NONE', #131, #30 ) ;
#127 = VECTOR ( 'NONE', #53, 1000.000000000000000 ) ;
#128 = ORIENTED_EDGE ( 'NONE', *, *, #104, .T. ) ;
#129 = EDGE_CURVE ( 'NONE', #250, #266, #160, .T. ) ;
#130 = CARTESIAN_POINT ( 'NONE',  ( 160.0999999999999900, 18.04999999999999400, 0.0000000000000000000 ) ) ;
#131 = CARTESIAN_POINT ( 'NONE',  ( 160.0999999999999900, 18.04999999999999400, 0.4079999999999986400 ) ) ;
#132 = MECHANICAL_DESIGN_GEOMETRIC_PRESENTATION_REPRESENTATION (  '', ( #107 ), #143 ) ;
#133 = DIRECTION ( 'NONE',  ( 1.000000000000000000, 0.0000000000000000000, 0.0000000000000000000 ) ) ;
#134 = LINE ( 'NONE', #37, #127 ) ;
#135 = CARTESIAN_POINT ( 'NONE',  ( -160.0999999999999900, 18.04999999999999400, 0.0000000000000000000 ) ) ;
#136 = AXIS2_PLACEMENT_3D ( 'NONE', #71, #212, #94 ) ;
#137 = EDGE_LOOP ( 'NONE', ( #141, #68, #18, #213 ) ) ;
#138 = LINE ( 'NONE', #95, #2 ) ;
#139 = CARTESIAN_POINT ( 'NONE',  ( 0.0000000000000000000, 0.0000000000000000000, 0.0000000000000000000 ) ) ;
#140 =( NAMED_UNIT ( * ) PLANE_ANGLE_UNIT ( ) SI_UNIT ( $, .RADIAN. ) );
#141 = ORIENTED_EDGE ( 'NONE', *, *, #194, .T. ) ;
#142 = EDGE_CURVE ( 'NONE', #34, #247, #66, .T. ) ;
#143 =( GEOMETRIC_REPRESENTATION_CONTEXT ( 3 ) GLOBAL_UNCERTAINTY_ASSIGNED_CONTEXT ( ( #182 ) ) GLOBAL_UNIT_ASSIGNED_CONTEXT ( ( #265, #140, #21 ) ) REPRESENTATION_CONTEXT ( 'NONE', 'WORKASPACE' ) );
#144 = ADVANCED_FACE ( 'NONE', ( #257 ), #151, .F. ) ;
#145 = EDGE_LOOP ( 'NONE', ( #267, #44, #210, #1 ) ) ;
#146 = VECTOR ( 'NONE', #7, 1000.000000000000000 ) ;
#147 = AXIS2_PLACEMENT_3D ( 'NONE', #173, #51, #191 ) ;
#148 = DIRECTION ( 'NONE',  ( -0.0000000000000000000, 0.0000000000000000000, 1.000000000000000000 ) ) ;
#149 = CARTESIAN_POINT ( 'NONE',  ( -160.0999999999999900, -18.05000000000000800, 0.0000000000000000000 ) ) ;
#150 = ORIENTED_EDGE ( 'NONE', *, *, #209, .T. ) ;
#151 = CYLINDRICAL_SURFACE ( 'NONE', #219, 2.500000000000002200 ) ;
#152 = MANIFOLD_SOLID_BREP ( 'Cut-Extrude1', #237 ) ;
#153 = SURFACE_STYLE_FILL_AREA ( #102 ) ;
#154 = EDGE_CURVE ( 'NONE', #34, #54, #84, .T. ) ;
#155 = VERTEX_POINT ( 'NONE', #11 ) ;
#156 = DIRECTION ( 'NONE',  ( 0.0000000000000000000, -1.000000000000000000, 0.0000000000000000000 ) ) ;
#157 = CARTESIAN_POINT ( 'NONE',  ( 160.0999999999999900, 18.04999999999999400, 0.4079999999999986400 ) ) ;
#158 =( NAMED_UNIT ( * ) PLANE_ANGLE_UNIT ( ) SI_UNIT ( $, .RADIAN. ) );
#159 = ORIENTED_EDGE ( 'NONE', *, *, #87, .T. ) ;
#160 = CIRCLE ( 'NONE', #178, 2.500000000000002200 ) ;
#161 = COLOUR_RGB ( '',1.000000000000000000, 1.000000000000000000, 1.000000000000000000 ) ;
#162 = PLANE ( 'NONE',  #86 ) ;
#163 = EDGE_LOOP ( 'NONE', ( #170, #100, #128, #79, #206, #203 ) ) ;
#164 = ORIENTED_EDGE ( 'NONE', *, *, #194, .F. ) ;
#165 = AXIS2_PLACEMENT_3D ( 'NONE', #172, #190, #72 ) ;
#166 = LINE ( 'NONE', #261, #116 ) ;
#167 = EDGE_CURVE ( 'NONE', #54, #266, #134, .T. ) ;
#168 = ADVANCED_FACE ( 'NONE', ( #23 ), #259, .F. ) ;
#169 = DIRECTION ( 'NONE',  ( -0.0000000000000000000, 1.000000000000000000, -0.0000000000000000000 ) ) ;
#170 = ORIENTED_EDGE ( 'NONE', *, *, #117, .F. ) ;
#171 = VECTOR ( 'NONE', #112, 1000.000000000000000 ) ;
#172 = CARTESIAN_POINT ( 'NONE',  ( 160.0999999999999900, 18.04999999999999400, 0.4079999999999986400 ) ) ;
#173 = CARTESIAN_POINT ( 'NONE',  ( 160.0999999999999900, -6.938893903907228400E-015, 0.4079999999999986400 ) ) ;
#174 = FILL_AREA_STYLE_COLOUR ( '', #20 ) ;
#175 = LINE ( 'NONE', #199, #13 ) ;
#176 = EDGE_LOOP ( 'NONE', ( #118, #65, #46, #24 ) ) ;
#177 = CARTESIAN_POINT ( 'NONE',  ( -160.0999999999999900, 18.04999999999999400, 0.0000000000000000000 ) ) ;
#178 = AXIS2_PLACEMENT_3D ( 'NONE', #97, #239, #115 ) ;
#179 = DIRECTION ( 'NONE',  ( 0.0000000000000000000, 0.0000000000000000000, 1.000000000000000000 ) ) ;
#180 = DIRECTION ( 'NONE',  ( 1.000000000000000000, 0.0000000000000000000, 0.0000000000000000000 ) ) ;
#181 = LINE ( 'NONE', #243, #74 ) ;
#182 = UNCERTAINTY_MEASURE_WITH_UNIT (LENGTH_MEASURE( 1.000000000000000100E-005 ), #265, 'distance_accuracy_value', 'NONE');
#183 = EDGE_CURVE ( 'NONE', #266, #247, #181, .T. ) ;
#184 = ORIENTED_EDGE ( 'NONE', *, *, #154, .F. ) ;
#185 = VECTOR ( 'NONE', #254, 1000.000000000000000 ) ;
#186 = PRODUCT_DEFINITION_CONTEXT ( 'detailed design', #83, 'design' ) ;
#187 = AXIS2_PLACEMENT_3D ( 'NONE', #139, #42, #180 ) ;
#188 = ORIENTED_EDGE ( 'NONE', *, *, #104, .F. ) ;
#189 = STYLED_ITEM ( 'NONE', ( #26 ), #152 ) ;
#190 = DIRECTION ( 'NONE',  ( -1.000000000000000000, 0.0000000000000000000, 0.0000000000000000000 ) ) ;
#191 = DIRECTION ( 'NONE',  ( 1.000000000000000000, 0.0000000000000000000, 0.0000000000000000000 ) ) ;
#192 = SURFACE_SIDE_STYLE ('',( #50 ) ) ;
#193 = CARTESIAN_POINT ( 'NONE',  ( -160.0999999999999900, 18.04999999999999400, 0.4079999999999986400 ) ) ;
#194 = EDGE_CURVE ( 'NONE', #221, #96, #103, .T. ) ;
#195 = ORIENTED_EDGE ( 'NONE', *, *, #15, .F. ) ;
#196 = DIRECTION ( 'NONE',  ( 1.000000000000000000, 0.0000000000000000000, -0.0000000000000000000 ) ) ;
#197 = LINE ( 'NONE', #255, #171 ) ;
#198 = CARTESIAN_POINT ( 'NONE',  ( -160.0999999999999900, -18.05000000000000800, 0.4079999999999986400 ) ) ;
#199 = CARTESIAN_POINT ( 'NONE',  ( -160.0999999999999900, -18.05000000000000800, 0.4079999999999986400 ) ) ;
#200 = PRODUCT_DEFINITION ( 'UNKNOWN', '', #214, #186 ) ;
#201 = PRODUCT_CONTEXT ( 'NONE', #58, 'mechanical' ) ;
#202 = PRODUCT ( '80W-Barrel 3 Stave Skin 2', '80W-Barrel 3 Stave Skin 2', '', ( #201 ) ) ;
#203 = ORIENTED_EDGE ( 'NONE', *, *, #142, .T. ) ;
#204 = CARTESIAN_POINT ( 'NONE',  ( 160.0999999999999900, 18.04999999999999400, 0.4079999999999986400 ) ) ;
#205 = ORIENTED_EDGE ( 'NONE', *, *, #43, .T. ) ;
#206 = ORIENTED_EDGE ( 'NONE', *, *, #270, .T. ) ;
#207 = VECTOR ( 'NONE', #215, 1000.000000000000000 ) ;
#208 = VECTOR ( 'NONE', #264, 1000.000000000000000 ) ;
#209 = EDGE_CURVE ( 'NONE', #9, #96, #175, .T. ) ;
#210 = ORIENTED_EDGE ( 'NONE', *, *, #142, .F. ) ;
#211 = ORIENTED_EDGE ( 'NONE', *, *, #27, .F. ) ;
#212 = DIRECTION ( 'NONE',  ( 0.0000000000000000000, 1.000000000000000000, 0.0000000000000000000 ) ) ;
#213 = ORIENTED_EDGE ( 'NONE', *, *, #244, .T. ) ;
#214 = PRODUCT_DEFINITION_FORMATION_WITH_SPECIFIED_SOURCE ( 'ANY', '', #202, .NOT_KNOWN. ) ;
#215 = DIRECTION ( 'NONE',  ( -0.0000000000000000000, 1.000000000000000000, -0.0000000000000000000 ) ) ;
#216 =( LENGTH_UNIT ( ) NAMED_UNIT ( * ) SI_UNIT ( .MILLI., .METRE. ) );
#217 = DIRECTION ( 'NONE',  ( 0.0000000000000000000, -1.000000000000000000, 0.0000000000000000000 ) ) ;
#218 = CARTESIAN_POINT ( 'NONE',  ( -160.0999999999999900, 18.04999999999999400, 0.4079999999999986400 ) ) ;
#219 = AXIS2_PLACEMENT_3D ( 'NONE', #33, #258, #133 ) ;
#220 = CARTESIAN_POINT ( 'NONE',  ( -160.0999999999999900, -18.05000000000000800, 0.0000000000000000000 ) ) ;
#221 = VERTEX_POINT ( 'NONE', #135 ) ;
#222 = FILL_AREA_STYLE_COLOUR ( '', #161 ) ;
#223 = FACE_OUTER_BOUND ( 'NONE', #145, .T. ) ;
#224 = APPLICATION_PROTOCOL_DEFINITION ( 'draft international standard', 'automotive_design', 1998, #83 ) ;
#225 = VECTOR ( 'NONE', #101, 1000.000000000000000 ) ;
#226 = ORIENTED_EDGE ( 'NONE', *, *, #76, .T. ) ;
#227 = EDGE_LOOP ( 'NONE', ( #159, #55, #188, #226 ) ) ;
#228 = EDGE_CURVE ( 'NONE', #5, #9, #166, .T. ) ;
#229 = VERTEX_POINT ( 'NONE', #268 ) ;
#230 = PRODUCT_RELATED_PRODUCT_CATEGORY ( 'part', '', ( #202 ) ) ;
#231 = FACE_OUTER_BOUND ( 'NONE', #137, .T. ) ;
#232 = ADVANCED_BREP_SHAPE_REPRESENTATION ( '80W-Barrel 3 Stave Skin 2', ( #152, #187 ), #64 ) ;
#233 = ADVANCED_FACE ( 'NONE', ( #231 ), #120, .F. ) ;
#234 = SHAPE_DEFINITION_REPRESENTATION ( #40, #232 ) ;
#235 = PLANE ( 'NONE',  #110 ) ;
#236 = PRESENTATION_LAYER_ASSIGNMENT (  '', '', ( #189 ) ) ;
#237 = CLOSED_SHELL ( 'NONE', ( #88, #233, #69, #251, #168, #6, #47, #144 ) ) ;
#238 = FACE_OUTER_BOUND ( 'NONE', #125, .T. ) ;
#239 = DIRECTION ( 'NONE',  ( -0.0000000000000000000, 0.0000000000000000000, 1.000000000000000000 ) ) ;
#240 = VECTOR ( 'NONE', #14, 1000.000000000000000 ) ;
#241 = ORIENTED_EDGE ( 'NONE', *, *, #87, .F. ) ;
#242 =( NAMED_UNIT ( * ) SI_UNIT ( $, .STERADIAN. ) SOLID_ANGLE_UNIT ( ) );
#243 = CARTESIAN_POINT ( 'NONE',  ( 160.0999999999999900, -2.500000000000000400, -9.591999999999997000 ) ) ;
#244 = EDGE_CURVE ( 'NONE', #5, #221, #67, .T. ) ;
#245 = DIRECTION ( 'NONE',  ( -0.0000000000000000000, -0.0000000000000000000, -1.000000000000000000 ) ) ;
#246 = SURFACE_SIDE_STYLE ('',( #153 ) ) ;
#247 = VERTEX_POINT ( 'NONE', #16 ) ;
#248 = LINE ( 'NONE', #130, #185 ) ;
#249 = MECHANICAL_DESIGN_GEOMETRIC_PRESENTATION_REPRESENTATION (  '', ( #189 ), #263 ) ;
#250 = VERTEX_POINT ( 'NONE', #121 ) ;
#251 = ADVANCED_FACE ( 'NONE', ( #108 ), #17, .F. ) ;
#252 = EDGE_CURVE ( 'NONE', #96, #54, #4, .T. ) ;
#253 = DIRECTION ( 'NONE',  ( 1.000000000000000000, 0.0000000000000000000, 0.0000000000000000000 ) ) ;
#254 = DIRECTION ( 'NONE',  ( -0.0000000000000000000, 1.000000000000000000, -0.0000000000000000000 ) ) ;
#255 = CARTESIAN_POINT ( 'NONE',  ( -160.0999999999999900, 18.04999999999999400, 0.0000000000000000000 ) ) ;
#256 = DIRECTION ( 'NONE',  ( -1.000000000000000000, -0.0000000000000000000, -0.0000000000000000000 ) ) ;
#257 = FACE_OUTER_BOUND ( 'NONE', #176, .T. ) ;
#258 = DIRECTION ( 'NONE',  ( -0.0000000000000000000, -0.0000000000000000000, 1.000000000000000000 ) ) ;
#259 = PLANE ( 'NONE',  #25 ) ;
#260 = ORIENTED_EDGE ( 'NONE', *, *, #252, .F. ) ;
#261 = CARTESIAN_POINT ( 'NONE',  ( -160.0999999999999900, 18.04999999999999400, 0.4079999999999986400 ) ) ;
#262 = FACE_OUTER_BOUND ( 'NONE', #163, .T. ) ;
#263 =( GEOMETRIC_REPRESENTATION_CONTEXT ( 3 ) GLOBAL_UNCERTAINTY_ASSIGNED_CONTEXT ( ( #61 ) ) GLOBAL_UNIT_ASSIGNED_CONTEXT ( ( #216, #98, #242 ) ) REPRESENTATION_CONTEXT ( 'NONE', 'WORKASPACE' ) );
#264 = DIRECTION ( 'NONE',  ( 1.000000000000000000, 0.0000000000000000000, 0.0000000000000000000 ) ) ;
#265 =( LENGTH_UNIT ( ) NAMED_UNIT ( * ) SI_UNIT ( .MILLI., .METRE. ) );
#266 = VERTEX_POINT ( 'NONE', #80 ) ;
#267 = ORIENTED_EDGE ( 'NONE', *, *, #167, .T. ) ;
#268 = CARTESIAN_POINT ( 'NONE',  ( 160.0999999999999900, 18.04999999999999400, 0.4079999999999986400 ) ) ;
#269 = LINE ( 'NONE', #198, #208 ) ;
#270 = EDGE_CURVE ( 'NONE', #9, #34, #269, .T. ) ;
ENDSEC;
END-ISO-10303-21;
