 PTC IGES file: t001-1-6-003_a.igs                                      S      1
1H,,1H;,14HT001-1-6-003_A,18Ht001-1-6-003_a.igs,                        G      1
49HPro/ENGINEER by Parametric Technology Corporation,7H2004110,32,38,7, G      2
38,15,14HT001-1-6-003_A,1.,2,2HMM,32768,0.5,13H080428.080957,           G      3
0.00765998,76.6029,10Hliuxiaokun,7HUnknown,10,0,13H080428.080957;       G      4
     314       1       1       1       0       0       0       001000200D      1
     314       0       4       1       0                   COLOR       1D      2
     314       2       1       1       0       0       0       001000200D      3
     314       0       1       1       0                   COLOR       2D      4
     314       3       1       1       0       0       0       001000200D      5
     314       0       1       1       0                   COLOR       3D      6
     314       4       1       1       0       0       0       001000200D      7
     314       0       1       1       0                   COLOR       4D      8
     314       5       1       1       0       0       0       001000200D      9
     314       0       8       1       0                   COLOR       5D     10
     314       6       1       1       0       0       0       001000200D     11
     314       0       8       1       0                   COLOR       6D     12
     314       7       1       1       0       0       0       001000200D     13
     314       0       5       1       0                   COLOR       7D     14
     314       8       1       1       0       0       0       001000200D     15
     314       0       8       1       0                   COLOR       8D     16
     124       9       1       1       0       0       0       001000000D     17
     124       0       0       1       0                   XFORM       1D     18
     100      10       1       1       0       0      17       001010000D     19
     100       0      -9       1       0                     ARC       1D     20
     124      11       1       1       0       0       0       001000000D     21
     124       0       0       1       0                   XFORM       2D     22
     100      12       1       1       0       0      21       001010000D     23
     100       0      -9       1       0                     ARC       2D     24
     110      13       1       1       0       0       0       001010000D     25
     110       0      -9       1       0                    LINE       1D     26
     110      14       1       1       0       0       0       001010000D     27
     110       0      -9       1       0                    LINE       2D     28
     124      15       1       1       0       0       0       001000000D     29
     124       0       0       1       0                   XFORM       3D     30
     100      16       1       1       0       0      29       001010000D     31
     100       0      -9       1       0                     ARC       3D     32
     124      17       1       1       0       0       0       001000000D     33
     124       0       0       1       0                   XFORM       4D     34
     100      18       1       1       0       0      33       001010000D     35
     100       0      -9       1       0                     ARC       4D     36
     502      19       1       1       0       0       0       001010000D     37
     502       0      -9       1       1                  VERTEX       1D     38
     504      20       1       1       0       0       0       000010001D     39
     504       0      -9       2       1                    EDGE       1D     40
     128      22       1       1       0       0       0       001010000D     41
     128       0      -9       4       0                  SPLSRF       1D     42
     508      26       1       1       0       0       0       001010000D     43
     508       0       0       1       1                EDGELOOP       1D     44
     510      27       1       1       0       0       0       000010000D     45
     510       0      -9       1       1                    FACE       1D     46
     110      28       1       1       0       0       0       001010000D     47
     110       0      -9       1       0                    LINE       3D     48
     110      29       1       1       0       0       0       001010000D     49
     110       0      -9       1       0                    LINE       4D     50
     120      30       1       1       0       0       0       001010000D     51
     120       0      -9       1       0                    SREV       1D     52
     508      31       1       1       0       0       0       001010000D     53
     508       0       0       1       1                EDGELOOP       2D     54
     510      32       1       1       0       0       0       000010000D     55
     510       0      -9       1       1                    FACE       2D     56
     110      33       1       1       0       0       0       001010000D     57
     110       0      -9       1       0                    LINE       5D     58
     110      34       1       1       0       0       0       001010000D     59
     110       0      -9       1       0                    LINE       6D     60
     120      35       1       1       0       0       0       001010000D     61
     120       0      -9       1       0                    SREV       2D     62
     508      36       1       1       0       0       0       001010000D     63
     508       0       0       1       1                EDGELOOP       3D     64
     510      37       1       1       0       0       0       000010000D     65
     510       0      -9       1       1                    FACE       3D     66
     128      38       1       1       0       0       0       001010000D     67
     128       0      -9       4       0                  SPLSRF       2D     68
     508      42       1       1       0       0       0       001010000D     69
     508       0       0       1       1                EDGELOOP       4D     70
     510      43       1       1       0       0       0       000010000D     71
     510       0      -9       1       1                    FACE       4D     72
     514      44       1       1       0       0       0       000000000D     73
     514       0      -9       1       1                   SHELL       1D     74
     186      45       1       1       0       0       0       000000000D     75
     186       0      -9       1       0                    MSBR       1D     76
314,1.1D0,1.2D0,1D2;                                                   1P      1
314,1.1D1,1.1D1,1.1D1;                                                 3P      2
314,3.92D1,1.2D0,1.2D0;                                                5P      3
314,4.1D1,0D0,2.2D1;                                                   7P      4
314,8.784D1,9.49D1,1D2;                                                9P      5
314,9.6D1,9.6D1,9.6D1;                                                11P      6
314,9.8D1,6.27D1,0D0;                                                 13P      7
314,1D2,1D2,9.49D1;                                                   15P      8
124,0D0,0D0,-1D0,0D0,0D0,1D0,0D0,0D0,1D0,0D0,0D0,0D0;                 17P      9
100,0D0,0D0,0D0,1.1D1,0D0,-1.1D1,0D0;                                 19P     10
124,0D0,0D0,-1D0,0D0,0D0,-1D0,0D0,0D0,-1D0,0D0,0D0,0D0;               21P     11
100,0D0,0D0,0D0,1.1D1,0D0,-1.1D1,0D0;                                 23P     12
110,0D0,0D0,1.1D1,7D1,0D0,1.1D1;                                      25P     13
110,0D0,0D0,-1.1D1,7D1,0D0,-1.1D1;                                    27P     14
124,0D0,0D0,-1D0,7D1,0D0,1D0,0D0,0D0,1D0,0D0,0D0,0D0;                 29P     15
100,0D0,0D0,0D0,1.1D1,0D0,-1.1D1,0D0;                                 31P     16
124,0D0,0D0,-1D0,7D1,0D0,-1D0,0D0,0D0,-1D0,0D0,0D0,0D0;               33P     17
100,0D0,0D0,0D0,1.1D1,0D0,-1.1D1,0D0;                                 35P     18
502,4,0D0,0D0,1.1D1,0D0,0D0,-1.1D1,7D1,0D0,1.1D1,7D1,0D0,-1.1D1;      37P     19
504,6,19,37,1,37,2,23,37,2,37,1,31,37,3,37,4,35,37,4,37,3,25,37,      39P     20
1,37,3,27,37,2,37,4;                                                  39P     21
128,1,1,1,1,0,0,1,0,0,-1.144D1,-1.144D1,1.144D1,1.144D1,              41P     22
-1.144D1,-1.144D1,1.144D1,1.144D1,1D0,1D0,1D0,1D0,0D0,1.144D1,        41P     23
1.144D1,0D0,-1.144D1,1.144D1,0D0,1.144D1,-1.144D1,0D0,-1.144D1,       41P     24
-1.144D1,-1.144D1,1.144D1,-1.144D1,1.144D1;                           41P     25
508,2,0,39,1,0,0,0,39,2,0,0;                                          43P     26
510,41,1,0,43;                                                        45P     27
110,0D0,0D0,0D0,-1D0,0D0,0D0;                                         47P     28
110,7.14D1,0D0,1.1D1,-1.4D0,0D0,1.1D1;                                49P     29
120,47,49,-6.283185307180D-2,3.204424506662D0;                        51P     30
508,4,0,39,1,1,0,0,39,6,1,0,0,39,3,0,0,0,39,5,0,0;                    53P     31
510,51,1,0,53;                                                        55P     32
110,0D0,0D0,0D0,-1D0,0D0,0D0;                                         57P     33
110,7.14D1,0D0,1.1D1,-1.4D0,0D0,1.1D1;                                59P     34
120,57,59,3.078760800518D0,6.346017160251D0;                          61P     35
508,4,0,39,2,1,0,0,39,5,1,0,0,39,4,0,0,0,39,6,0,0;                    63P     36
510,61,1,0,63;                                                        65P     37
128,1,1,1,1,0,0,1,0,0,-1.144D1,-1.144D1,1.144D1,1.144D1,              67P     38
-1.144D1,-1.144D1,1.144D1,1.144D1,1D0,1D0,1D0,1D0,7D1,-1.144D1,       67P     39
-1.144D1,7D1,-1.144D1,1.144D1,7D1,1.144D1,-1.144D1,7D1,1.144D1,       67P     40
1.144D1,-1.144D1,1.144D1,-1.144D1,1.144D1;                            67P     41
508,2,0,39,3,1,0,0,39,4,1,0;                                          69P     42
510,67,1,0,69;                                                        71P     43
514,4,45,0,55,1,65,1,71,0;                                            73P     44
186,73,1,0;                                                           75P     45
S      1G      4D     76P     45                                        T      1
