 PTC IGES file: shuangdai-1-1_mir_mir.igs                               S      1
1H,,1H;,21HSHUANGDAI-1-1_MIR_MIR,25Hshuangdai-1-1_mir_mir.igs,          G      1
49HPro/ENGINEER by Parametric Technology Corporation,7H2004110,32,38,7, G      2
38,15,21HSHUANGDAI-1-1_MIR_MIR,1.,2,2HMM,32768,0.5,13H080428.081007,    G      3
0.260362,2603.72,10Hliuxiaokun,7HUnknown,10,0,13H080428.081007;         G      4
     314       1       1       1       0       0       0       001000200D      1
     314       0       4       1       0                   COLOR       1D      2
     314       2       1       1       0       0       0       001000200D      3
     314       0       1       1       0                   COLOR       2D      4
     314       3       1       1       0       0       0       001000200D      5
     314       0       1       1       0                   COLOR       3D      6
     314       4       1       1       0       0       0       001000200D      7
     314       0       1       1       0                   COLOR       4D      8
     314       5       1       1       0       0       0       001000200D      9
     314       0       8       1       0                   COLOR       5D     10
     314       6       1       1       0       0       0       001000200D     11
     314       0       8       1       0                   COLOR       6D     12
     314       7       1       1       0       0       0       001000200D     13
     314       0       8       1       0                   COLOR       7D     14
     314       8       1       1       0       0       0       001000200D     15
     314       0       5       1       0                   COLOR       8D     16
     314       9       1       1       0       0       0       001000200D     17
     314       0       8       1       0                   COLOR       9D     18
     110      10       1       1       0       0       0       001010000D     19
     110       0     -11       2       0                    LINE       1D     20
     110      12       1       1       0       0       0       001010000D     21
     110       0     -11       2       0                    LINE       2D     22
     124      14       1       1       0       0       0       001000000D     23
     124       0       0       2       0                   XFORM       1D     24
     100      16       1       1       0       0      23       001010000D     25
     100       0     -11       1       0                     ARC       1D     26
     110      17       1       1       0       0       0       001010000D     27
     110       0     -11       2       0                    LINE       3D     28
     110      19       1       1       0       0       0       001010000D     29
     110       0     -11       2       0                    LINE       4D     30
     124      21       1       1       0       0       0       001000000D     31
     124       0       0       2       0                   XFORM       2D     32
     100      23       1       1       0       0      31       001010000D     33
     100       0     -11       1       0                     ARC       2D     34
     110      24       1       1       0       0       0       001010000D     35
     110       0     -11       2       0                    LINE       5D     36
     126      26       1       1       0       0       0       001010000D     37
     126       0     -11       9       0                B_SPLINE       1D     38
     110      35       1       1       0       0       0       001010000D     39
     110       0     -11       2       0                    LINE       6D     40
     110      37       1       1       0       0       0       001010000D     41
     110       0     -11       2       0                    LINE       7D     42
     124      39       1       1       0       0       0       001000000D     43
     124       0       0       2       0                   XFORM       3D     44
     100      41       1       1       0       0      43       001010000D     45
     100       0     -11       1       0                     ARC       3D     46
     110      42       1       1       0       0       0       001010000D     47
     110       0     -11       2       0                    LINE       8D     48
     124      44       1       1       0       0       0       001000000D     49
     124       0       0       2       0                   XFORM       4D     50
     100      46       1       1       0       0      49       001010000D     51
     100       0     -11       1       0                     ARC       4D     52
     110      47       1       1       0       0       0       001010000D     53
     110       0     -11       2       0                    LINE       9D     54
     110      49       1       1       0       0       0       001010000D     55
     110       0     -11       2       0                    LINE      10D     56
     124      51       1       1       0       0       0       001000000D     57
     124       0       0       3       0                   XFORM       5D     58
     100      54       1       1       0       0      57       001010000D     59
     100       0     -11       1       0                     ARC       5D     60
     124      55       1       1       0       0       0       001000000D     61
     124       0       0       3       0                   XFORM       6D     62
     100      58       1       1       0       0      61       001010000D     63
     100       0     -11       1       0                     ARC       6D     64
     110      59       1       1       0       0       0       001010000D     65
     110       0     -11       2       0                    LINE      11D     66
     110      61       1       1       0       0       0       001010000D     67
     110       0     -11       2       0                    LINE      12D     68
     110      63       1       1       0       0       0       001010000D     69
     110       0     -11       2       0                    LINE      13D     70
     126      65       1       1       0       0       0       001010000D     71
     126       0     -11       9       0                B_SPLINE       2D     72
     110      74       1       1       0       0       0       001010000D     73
     110       0     -11       2       0                    LINE      14D     74
     502      76       1       1       0       0       0       001010000D     75
     502       0     -11      12       1                  VERTEX       1D     76
     504      88       1       1       0       0       0       000010001D     77
     504       0     -11       5       1                    EDGE       1D     78
     128      93       1       1       0       0       0       001010000D     79
     128       0     -11       8       0                  SPLSRF       1D     80
     508     101       1       1       0       0       0       001010000D     81
     508       0       0       2       1                EDGELOOP       1D     82
     510     103       1       1       0       0       0       000010000D     83
     510       0     -11       1       1                    FACE       1D     84
     128     104       1       1       0       0       0       001010000D     85
     128       0     -11       9       0                  SPLSRF       2D     86
     508     113       1       1       0       0       0       001010000D     87
     508       0       0       1       1                EDGELOOP       2D     88
     510     114       1       1       0       0       0       000010000D     89
     510       0     -11       1       1                    FACE       2D     90
     128     115       1       1       0       0       0       001010000D     91
     128       0     -11       9       0                  SPLSRF       3D     92
     508     124       1       1       0       0       0       001010000D     93
     508       0       0       1       1                EDGELOOP       3D     94
     510     125       1       1       0       0       0       000010000D     95
     510       0     -11       1       1                    FACE       3D     96
     128     126       1       1       0       0       0       001010000D     97
     128       0     -11       8       0                  SPLSRF       4D     98
     508     134       1       1       0       0       0       001010000D     99
     508       0       0       1       1                EDGELOOP       4D    100
     510     135       1       1       0       0       0       000010000D    101
     510       0     -11       1       1                    FACE       4D    102
     110     136       1       1       0       0       0       001010000D    103
     110       0     -11       1       0                    LINE      15D    104
     110     137       1       1       0       0       0       001010000D    105
     110       0     -11       1       0                    LINE      16D    106
     120     138       1       1       0       0       0       001010000D    107
     120       0     -11       1       0                    SREV       1D    108
     508     139       1       1       0       0       0       001010000D    109
     508       0       0       1       1                EDGELOOP       5D    110
     510     140       1       1       0       0       0       000010000D    111
     510       0     -11       1       1                    FACE       5D    112
     110     141       1       1       0       0       0       001010000D    113
     110       0     -11       2       0                    LINE      17D    114
     110     143       1       1       0       0       0       001010000D    115
     110       0     -11       2       0                    LINE      18D    116
     120     145       1       1       0       0       0       001010000D    117
     120       0     -11       1       0                    SREV       2D    118
     508     146       1       1       0       0       0       001010000D    119
     508       0       0       1       1                EDGELOOP       6D    120
     510     147       1       1       0       0       0       000010000D    121
     510       0     -11       1       1                    FACE       6D    122
     110     148       1       1       0       0       0       001010000D    123
     110       0     -11       1       0                    LINE      19D    124
     110     149       1       1       0       0       0       001010000D    125
     110       0     -11       1       0                    LINE      20D    126
     120     150       1       1       0       0       0       001010000D    127
     120       0     -11       1       0                    SREV       3D    128
     508     151       1       1       0       0       0       001010000D    129
     508       0       0       1       1                EDGELOOP       7D    130
     510     152       1       1       0       0       0       000010000D    131
     510       0     -11       1       1                    FACE       7D    132
     128     153       1       1       0       0       0       001010000D    133
     128       0     -11       9       0                  SPLSRF       5D    134
     508     162       1       1       0       0       0       001010000D    135
     508       0       0       1       1                EDGELOOP       8D    136
     510     163       1       1       0       0       0       000010000D    137
     510       0     -11       1       1                    FACE       8D    138
     128     164       1       1       0       0       0       001010000D    139
     128       0     -11       9       0                  SPLSRF       6D    140
     508     173       1       1       0       0       0       001010000D    141
     508       0       0       1       1                EDGELOOP       9D    142
     510     174       1       1       0       0       0       000010000D    143
     510       0     -11       1       1                    FACE       9D    144
     110     175       1       1       0       0       0       001010000D    145
     110       0     -11       1       0                    LINE      21D    146
     110     176       1       1       0       0       0       001010000D    147
     110       0     -11       1       0                    LINE      22D    148
     120     177       1       1       0       0       0       001010000D    149
     120       0     -11       1       0                    SREV       4D    150
     508     178       1       1       0       0       0       001010000D    151
     508       0       0       1       1                EDGELOOP      10D    152
     510     179       1       1       0       0       0       000010000D    153
     510       0     -11       1       1                    FACE      10D    154
     514     180       1       1       0       0       0       000000000D    155
     514       0     -11       1       1                   SHELL       1D    156
     186     181       1       1       0       0       0       000000000D    157
     186       0     -11       1       0                    MSBR       1D    158
314,1.1D0,1.2D0,1D2;                                                   1P      1
314,1.1D1,1.1D1,1.1D1;                                                 3P      2
314,3.92D1,1.2D0,1.2D0;                                                5P      3
314,4.1D1,0D0,2.2D1;                                                   7P      4
314,8.784D1,9.49D1,1D2;                                                9P      5
314,9.01961D1,9.01961D1,1D2;                                          11P      6
314,9.6D1,9.6D1,9.6D1;                                                13P      7
314,9.8D1,6.27D1,0D0;                                                 15P      8
314,1D2,1D2,9.49D1;                                                   17P      9
110,1.75D2,6.594213701514D2,6.302954042253D2,1.75D2,                  19P     10
6.400168007571D2,6.071699389369D2;                                    19P     11
110,1.75D2,6.291346289011D2,5.968462605374D2,1.75D2,                  21P     12
6.400168007571D2,6.071699389369D2;                                    21P     13
124,0D0,0D0,-1D0,1.75D2,5.518112810398D-1,8.339690102859D-1,0D0,      23P     14
0D0,8.339690102859D-1,-5.518112810398D-1,0D0,0D0;                     23P     15
100,0D0,0D0,0D0,8.672D2,0D0,8.449148707136D2,1.953322841903D2;        25P     16
110,1.75D2,4.868079121333D2,7.357274608742D2,1.75D2,                  27P     17
4.785307429177D2,7.232179257199D2;                                    27P     18
110,1.75D2,4.868079121333D2,7.357274608742D2,1.75D2,                  29P     19
5.062124815277D2,7.588529261627D2;                                    29P     20
124,0D0,0D0,1D0,1.75D2,7.228912191969D-1,-6.909618551034D-1,0D0,      31P     21
0D0,6.909618551034D-1,7.228912191969D-1,0D0,0D0;                      31P     22
100,0D0,0D0,0D0,9.122D2,0D0,8.902749835562D2,1.987946016720D2;        33P     23
110,1.65D2,6.400168007571D2,6.071699389369D2,1.75D2,                  35P     24
6.400168007571D2,6.071699389369D2;                                    35P     25
126,5,3,0,0,1,0,0D0,0D0,0D0,0D0,3.333333333333D-1,                    37P     26
6.666666666667D-1,1D0,1D0,1D0,1D0,1D0,1D0,1D0,1D0,1D0,1D0,            37P     27
9.094673206950D1,6.400168007571D2,6.071699389369D2,                   37P     28
8.977298732349D1,6.421196516985D2,6.096760191009D2,                   37P     29
8.740553810097D1,6.463608103037D2,6.147304351055D2,                   37P     30
8.379532451167D1,6.528273998379D2,6.224370164147D2,                   37P     31
8.134745709377D1,6.572113931626D2,6.276616562093D2,                   37P     32
8.011339873617D1,6.594213701514D2,6.302954042253D2,0D0,1D0,0D0,       37P     33
0D0,1D0;                                                              37P     34
110,1.75D2,6.291346289011D2,5.968462605374D2,1.65D2,                  39P     35
6.291346289011D2,5.968462605374D2;                                    39P     36
110,1.65D2,4.868079121333D2,7.357274608742D2,1.65D2,                  41P     37
4.785307429177D2,7.232179257199D2;                                    41P     38
124,0D0,0D0,-1D0,1.65D2,5.518112810398D-1,8.339690102859D-1,0D0,      43P     39
0D0,8.339690102859D-1,-5.518112810398D-1,0D0,0D0;                     43P     40
100,0D0,0D0,0D0,8.672D2,0D0,8.449148707136D2,1.953322841903D2;        45P     41
110,1.65D2,6.291346289011D2,5.968462605374D2,1.65D2,                  47P     42
6.400168007571D2,6.071699389369D2;                                    47P     43
124,0D0,0D0,1D0,1.65D2,7.254781237328D-1,-6.882452266344D-1,0D0,      49P     44
0D0,6.882452266344D-1,7.254781237328D-1,0D0,0D0;                      49P     45
100,0D0,0D0,0D0,8.822D2,0D0,8.595294037633D2,1.987109560801D2;        51P     46
110,9.094673206950D1,6.400168007571D2,6.071699389369D2,1.65D2,        53P     47
6.400168007571D2,6.071699389369D2;                                    53P     48
110,9.094673206950D1,4.868079121333D2,7.357274608742D2,1.65D2,        55P     49
4.868079121333D2,7.357274608742D2;                                    55P     50
124,0D0,0D0,-1D0,9.094673206950D1,5.518112810398D-1,                  57P     51
8.339690102859D-1,0D0,0D0,8.339690102859D-1,-5.518112810398D-1,       57P     52
0D0,-5.585429579784D-14;                                              57P     53
100,0D0,0D0,0D0,8.822D2,0D0,8.595294037633D2,1.987109560801D2;        59P     54
124,0D0,0D0,1D0,8.011339873617D1,7.228912191969D-1,                   61P     55
-6.909618551034D-1,0D0,0D0,6.909618551034D-1,7.228912191969D-1,       61P     56
0D0,-5.585429579784D-14;                                              61P     57
100,0D0,0D0,0D0,9.122D2,0D0,8.902749835562D2,1.987946016720D2;        63P     58
110,8.011339873617D1,6.594213701514D2,6.302954042253D2,1.75D2,        65P     59
6.594213701514D2,6.302954042253D2;                                    65P     60
110,8.011339873617D1,5.062124815277D2,7.588529261627D2,1.75D2,        67P     61
5.062124815277D2,7.588529261627D2;                                    67P     62
110,1.65D2,4.868079121333D2,7.357274608742D2,1.75D2,                  69P     63
4.868079121333D2,7.357274608742D2;                                    69P     64
126,5,3,0,0,1,0,0D0,0D0,0D0,0D0,3.333333333333D-1,                    71P     65
6.666666666667D-1,1D0,1D0,1D0,1D0,1D0,1D0,1D0,1D0,1D0,1D0,            71P     66
8.011339873617D1,5.062124815277D2,7.588529261627D2,                   71P     67
8.134736228039D1,5.040026743325D2,7.562193804989D2,                   71P     68
8.379510465548D1,4.996189049907D2,7.509950076367D2,                   71P     69
8.740543354612D1,4.931521089821D2,7.432881802608D2,                   71P     70
8.977294309529D1,4.889108423128D2,7.382336354705D2,                   71P     71
9.094673206950D1,4.868079121333D2,7.357274608742D2,0D0,1D0,0D0,       71P     72
0D0,1D0;                                                              71P     73
110,1.75D2,4.785307429177D2,7.232179257199D2,1.65D2,                  73P     74
4.785307429177D2,7.232179257199D2;                                    73P     75
502,14,1.75D2,6.594213701514D2,6.302954042253D2,1.75D2,               75P     76
5.062124815277D2,7.588529261627D2,9.094673206950D1,                   75P     77
6.400168007571D2,6.071699389369D2,8.011339873617D1,                   75P     78
6.594213701514D2,6.302954042253D2,8.011339873617D1,                   75P     79
5.062124815277D2,7.588529261627D2,9.094673206950D1,                   75P     80
4.868079121333D2,7.357274608742D2,1.75D2,4.785307429177D2,            75P     81
7.232179257199D2,1.75D2,6.291346289011D2,5.968462605374D2,            75P     82
1.65D2,4.785307429177D2,7.232179257199D2,1.65D2,                      75P     83
6.291346289011D2,5.968462605374D2,1.65D2,6.400168007571D2,            75P     84
6.071699389369D2,1.65D2,4.868079121333D2,7.357274608742D2,            75P     85
1.75D2,6.400168007571D2,6.071699389369D2,1.75D2,                      75P     86
4.868079121333D2,7.357274608742D2;                                    75P     87
504,22,33,75,1,75,2,37,75,3,75,4,71,75,5,75,6,59,75,6,75,3,65,        77P     88
75,4,75,1,67,75,5,75,2,63,75,4,75,5,25,75,7,75,8,45,75,9,75,10,       77P     89
39,75,8,75,10,73,75,7,75,9,51,75,11,75,12,35,75,11,75,13,69,75,       77P     90
12,75,14,19,75,1,75,13,29,75,14,75,2,53,75,3,75,11,55,75,6,75,        77P     91
12,21,75,8,75,13,27,75,14,75,7,47,75,10,75,11,41,75,12,75,9;          77P     92
128,1,1,1,1,0,0,1,0,0,-6.630391826961D2,-6.630391826961D2,            79P     93
-4.749129303730D2,-4.749129303730D2,-7.620930594752D2,                79P     94
-7.620930594752D2,-5.936061272249D2,-5.936061272249D2,1D0,1D0,        79P     95
1D0,1D0,1.75D2,6.630391826961D2,7.620930594752D2,1.75D2,              79P     96
4.749129303730D2,7.620930594752D2,1.75D2,6.630391826961D2,            79P     97
5.936061272249D2,1.75D2,4.749129303730D2,5.936061272249D2,            79P     98
-6.630391826961D2,-4.749129303730D2,-7.620930594752D2,                79P     99
-5.936061272249D2;                                                    79P    100
508,6,0,77,15,1,0,0,77,19,0,0,0,77,8,0,0,0,77,20,0,0,0,77,16,1,       81P    101
0,0,77,1,0,0;                                                         81P    102
510,79,1,0,81;                                                        83P    103
128,1,1,1,1,0,0,1,0,0,2.267514910430D2,2.267514910430D2,              85P    104
2.631885759365D2,2.631885759365D2,4.112854317677D2,                   85P    105
4.112854317677D2,5.124209669684D2,5.124209669684D2,1D0,1D0,1D0,       85P    106
1D0,7.698893176774D1,6.614297388056D2,6.326888847842D2,               85P    107
7.698893176774D1,6.380084321029D2,6.047764583780D2,                   85P    108
1.781244669684D2,6.614297388056D2,6.326888847842D2,                   85P    109
1.781244669684D2,6.380084321029D2,6.047764583780D2,                   85P    110
2.267514910430D2,2.631885759365D2,4.112854317677D2,                   85P    111
5.124209669684D2;                                                     85P    112
508,5,0,77,13,1,0,0,77,15,0,0,0,77,5,0,0,0,77,2,0,0,0,77,17,1,0;      87P    113
510,85,1,0,87;                                                        89P    114
128,1,1,1,1,0,0,1,0,0,-3.124466968428D0,-3.124466968428D0,            91P    115
1.812446696843D1,1.812446696843D1,-1.312446696843D1,                  91P    116
-1.312446696843D1,3.124466968428D0,3.124466968428D0,1D0,1D0,1D0,      91P    117
1D0,1.618755330316D2,6.268678964672D2,5.946958610606D2,               91P    118
1.618755330316D2,6.422835331910D2,6.093203384137D2,                   91P    119
1.781244669684D2,6.268678964672D2,5.946958610606D2,                   91P    120
1.781244669684D2,6.422835331910D2,6.093203384137D2,                   91P    121
-3.124466968428D0,1.812446696843D1,-1.312446696843D1,                 91P    122
3.124466968428D0;                                                     91P    123
508,4,0,77,13,0,0,0,77,21,0,0,0,77,10,0,0,0,77,19,1,0;                93P    124
510,91,1,0,93;                                                        95P    125
128,1,1,1,1,0,0,1,0,0,-7.388519278426D2,-7.388519278426D2,            97P    126
-5.937217935690D2,-5.937217935690D2,4.753010217609D2,                 97P    127
4.753010217609D2,6.432465219139D2,6.432465219139D2,1D0,1D0,1D0,       97P    128
1D0,1.65D2,4.753010217609D2,7.388519278426D2,1.65D2,                  97P    129
4.753010217609D2,5.937217935690D2,1.65D2,6.432465219139D2,            97P    130
7.388519278426D2,1.65D2,6.432465219139D2,5.937217935690D2,            97P    131
-7.388519278426D2,-5.937217935690D2,4.753010217609D2,                 97P    132
6.432465219139D2;                                                     97P    133
508,4,0,77,12,1,0,0,77,22,1,0,0,77,9,1,0,0,77,21,1,0;                 99P    134
510,97,1,0,99;                                                       101P    135
110,-1.75D2,0D0,0D0,-1.74D2,0D0,0D0;                                 103P    136
110,8.782226510107D1,-8.822D2,0D0,1.681244669684D2,-8.822D2,0D0;     105P    137
120,103,105,3.896116254980D0,4.132398304194D0;                       107P    138
508,4,0,77,12,0,0,0,77,17,0,0,0,77,4,0,0,0,77,18,1,0;                109P    139
510,107,1,0,109;                                                     111P    140
110,4.095189542917D2,0D0,-5.585429579784D-14,4.105189542917D2,       113P    141
0D0,-5.585429579784D-14;                                             113P    142
110,7.905219082808D1,-5.882398365258D2,-7.010369384866D2,            115P    143
9.200793997758D1,-5.651782502958D2,-6.735532102461D2;                115P    144
120,113,115,-3.259733678197D0,-3.023451628983D0;                     117P    145
508,4,0,77,4,1,0,0,77,2,1,0,0,77,7,1,0,0,77,3,1,0;                   119P    146
510,117,1,0,119;                                                     121P    147
110,-1.75D2,0D0,0D0,-1.74D2,0D0,0D0;                                 123P    148
110,7.698893176774D1,-9.122D2,0D0,1.781244669684D2,-9.122D2,0D0;     125P    149
120,123,125,3.900017594522D0,4.128496964652D0;                       127P    150
508,4,0,77,7,0,0,0,77,5,1,0,0,77,1,1,0,0,77,6,0,0;                   129P    151
510,127,1,0,129;                                                     131P    152
128,1,1,1,1,0,0,1,0,0,1.062140355744D2,1.062140355744D2,             133P    153
1.426511204680D2,1.426511204680D2,4.112854317677D2,                  133P    154
4.112854317677D2,5.124209669684D2,5.124209669684D2,1D0,1D0,1D0,      133P    155
1D0,7.698893176774D1,4.847995434791D2,7.333339803153D2,              133P    156
7.698893176774D1,5.082208501818D2,7.612464067215D2,                  133P    157
1.781244669684D2,4.847995434791D2,7.333339803153D2,                  133P    158
1.781244669684D2,5.082208501818D2,7.612464067215D2,                  133P    159
1.062140355744D2,1.426511204680D2,4.112854317677D2,                  133P    160
5.124209669684D2;                                                    133P    161
508,5,0,77,14,0,0,0,77,18,0,0,0,77,3,0,0,0,77,6,1,0,0,77,16,0,0;     135P    162
510,133,1,0,135;                                                     137P    163
128,1,1,1,1,0,0,1,0,0,-3.124466968428D0,-3.124466968428D0,           139P    164
1.812446696843D1,1.812446696843D1,-1.312446696843D1,                 139P    165
-1.312446696843D1,3.124466968428D0,3.124466968428D0,1D0,1D0,1D0,     139P    166
1D0,1.618755330316D2,4.885320282537D2,7.383331694995D2,              139P    167
1.618755330316D2,4.768066267973D2,7.206122170946D2,                  139P    168
1.781244669684D2,4.885320282537D2,7.383331694995D2,                  139P    169
1.781244669684D2,4.768066267973D2,7.206122170946D2,                  139P    170
-3.124466968428D0,1.812446696843D1,-1.312446696843D1,                139P    171
3.124466968428D0;                                                    139P    172
508,4,0,77,14,1,0,0,77,20,1,0,0,77,11,1,0,0,77,22,0,0;               141P    173
510,139,1,0,141;                                                     143P    174
110,1.75D2,0D0,0D0,1.76D2,0D0,0D0;                                   145P    175
110,1.618755330316D2,0D0,-8.672D2,1.781244669684D2,0D0,-8.672D2;     147P    176
120,145,147,2.325319928185D0,2.561601977399D0;                       149P    177
508,4,0,77,8,1,0,0,77,10,1,0,0,77,9,0,0,0,77,11,0,0;                 151P    178
510,149,1,0,151;                                                     153P    179
514,10,83,1,89,0,95,1,101,0,111,0,121,0,131,1,137,0,143,1,153,0;     155P    180
186,155,1,0;                                                         157P    181
S      1G      4D    158P    181                                        T      1
