 PTC IGES file: shuang-013.igs                                          S      1
1H,,1H;,10HSHUANG-013,14Hshuang-013.igs,                                G      1
49HPro/ENGINEER by Parametric Technology Corporation,7H2004110,32,38,7, G      2
38,15,10HSHUANG-013,1.,2,2HMM,32768,0.5,13H080428.081005,0.0215912,     G      3
215.921,10Hliuxiaokun,7HUnknown,10,0,13H080428.081005;                  G      4
     314       1       1       1       0       0       0       001000200D      1
     314       0       4       1       0                   COLOR       1D      2
     314       2       1       1       0       0       0       001000200D      3
     314       0       1       1       0                   COLOR       2D      4
     314       3       1       1       0       0       0       001000200D      5
     314       0       1       1       0                   COLOR       3D      6
     314       4       1       1       0       0       0       001000200D      7
     314       0       1       1       0                   COLOR       4D      8
     314       5       1       1       0       0       0       001000200D      9
     314       0       8       1       0                   COLOR       5D     10
     314       6       1       1       0       0       0       001000200D     11
     314       0       8       1       0                   COLOR       6D     12
     314       7       1       1       0       0       0       001000200D     13
     314       0       8       1       0                   COLOR       7D     14
     314       8       1       1       0       0       0       001000200D     15
     314       0       5       1       0                   COLOR       8D     16
     314       9       1       1       0       0       0       001000200D     17
     314       0       8       1       0                   COLOR       9D     18
     124      10       1       1       0       0       0       001000000D     19
     124       0       0       1       0                   XFORM       1D     20
     100      11       1       1       0       0      19       001010000D     21
     100       0      -9       1       0                     ARC       1D     22
     124      12       1       1       0       0       0       001000000D     23
     124       0       0       1       0                   XFORM       2D     24
     100      13       1       1       0       0      23       001010000D     25
     100       0      -9       1       0                     ARC       2D     26
     110      14       1       1       0       0       0       001010000D     27
     110       0      -9       1       0                    LINE       1D     28
     110      15       1       1       0       0       0       001010000D     29
     110       0      -9       1       0                    LINE       2D     30
     124      16       1       1       0       0       0       001000000D     31
     124       0       0       1       0                   XFORM       3D     32
     100      17       1       1       0       0      31       001010000D     33
     100       0      -9       1       0                     ARC       3D     34
     124      18       1       1       0       0       0       001000000D     35
     124       0       0       1       0                   XFORM       4D     36
     100      19       1       1       0       0      35       001010000D     37
     100       0      -9       1       0                     ARC       4D     38
     124      20       1       1       0       0       0       001000000D     39
     124       0       0       1       0                   XFORM       5D     40
     100      21       1       1       0       0      39       001010000D     41
     100       0      -9       1       0                     ARC       5D     42
     124      22       1       1       0       0       0       001000000D     43
     124       0       0       1       0                   XFORM       6D     44
     100      23       1       1       0       0      43       001010000D     45
     100       0      -9       1       0                     ARC       6D     46
     110      24       1       1       0       0       0       001010000D     47
     110       0      -9       1       0                    LINE       3D     48
     110      25       1       1       0       0       0       001010000D     49
     110       0      -9       1       0                    LINE       4D     50
     124      26       1       1       0       0       0       001000000D     51
     124       0       0       1       0                   XFORM       7D     52
     100      27       1       1       0       0      51       001010000D     53
     100       0      -9       1       0                     ARC       7D     54
     124      28       1       1       0       0       0       001000000D     55
     124       0       0       1       0                   XFORM       8D     56
     100      29       1       1       0       0      55       001010000D     57
     100       0      -9       1       0                     ARC       8D     58
     124      30       1       1       0       0       0       001000000D     59
     124       0       0       1       0                   XFORM       9D     60
     100      31       1       1       0       0      59       001010000D     61
     100       0      -9       1       0                     ARC       9D     62
     124      32       1       1       0       0       0       001000000D     63
     124       0       0       1       0                   XFORM      10D     64
     100      33       1       1       0       0      63       001010000D     65
     100       0      -9       1       0                     ARC      10D     66
     124      34       1       1       0       0       0       001000000D     67
     124       0       0       1       0                   XFORM      11D     68
     100      35       1       1       0       0      67       001010000D     69
     100       0      -9       1       0                     ARC      11D     70
     124      36       1       1       0       0       0       001000000D     71
     124       0       0       1       0                   XFORM      12D     72
     100      37       1       1       0       0      71       001010000D     73
     100       0      -9       1       0                     ARC      12D     74
     110      38       1       1       0       0       0       001010000D     75
     110       0      -9       1       0                    LINE       5D     76
     110      39       1       1       0       0       0       001010000D     77
     110       0      -9       1       0                    LINE       6D     78
     502      40       1       1       0       0       0       001010000D     79
     502       0      -9       4       1                  VERTEX       1D     80
     504      44       1       1       0       0       0       000010001D     81
     504       0      -9       4       1                    EDGE       1D     82
     128      48       1       1       0       0       0       001010000D     83
     128       0      -9       6       0                  SPLSRF       1D     84
     508      54       1       1       0       0       0       001010000D     85
     508       0       0       1       1                EDGELOOP       1D     86
     508      55       1       1       0       0       0       001010000D     87
     508       0       0       1       1                EDGELOOP       2D     88
     510      56       1       1       0       0       0       000010000D     89
     510       0      -9       1       1                    FACE       1D     90
     110      57       1       1       0       0       0       001010000D     91
     110       0      -9       1       0                    LINE       7D     92
     110      58       1       1       0       0       0       001010000D     93
     110       0      -9       1       0                    LINE       8D     94
     120      59       1       1       0       0       0       001010000D     95
     120       0      -9       1       0                    SREV       1D     96
     508      60       1       1       0       0       0       001010000D     97
     508       0       0       1       1                EDGELOOP       3D     98
     510      61       1       1       0       0       0       000010000D     99
     510       0      -9       1       1                    FACE       2D    100
     110      62       1       1       0       0       0       001010000D    101
     110       0      -9       1       0                    LINE       9D    102
     110      63       1       1       0       0       0       001010000D    103
     110       0      -9       1       0                    LINE      10D    104
     120      64       1       1       0       0       0       001010000D    105
     120       0      -9       1       0                    SREV       2D    106
     508      65       1       1       0       0       0       001010000D    107
     508       0       0       1       1                EDGELOOP       4D    108
     510      66       1       1       0       0       0       000010000D    109
     510       0      -9       1       1                    FACE       3D    110
     128      67       1       1       0       0       0       001010000D    111
     128       0      -9       6       0                  SPLSRF       2D    112
     508      73       1       1       0       0       0       001010000D    113
     508       0       0       1       1                EDGELOOP       5D    114
     508      74       1       1       0       0       0       001010000D    115
     508       0       0       1       1                EDGELOOP       6D    116
     510      75       1       1       0       0       0       000010000D    117
     510       0      -9       1       1                    FACE       4D    118
     110      76       1       1       0       0       0       001010000D    119
     110       0      -9       1       0                    LINE      11D    120
     110      77       1       1       0       0       0       001010000D    121
     110       0      -9       1       0                    LINE      12D    122
     120      78       1       1       0       0       0       001010000D    123
     120       0      -9       1       0                    SREV       3D    124
     508      79       1       1       0       0       0       001010000D    125
     508       0       0       1       1                EDGELOOP       7D    126
     510      80       1       1       0       0       0       000010000D    127
     510       0      -9       1       1                    FACE       5D    128
     110      81       1       1       0       0       0       001010000D    129
     110       0      -9       1       0                    LINE      13D    130
     110      82       1       1       0       0       0       001010000D    131
     110       0      -9       1       0                    LINE      14D    132
     120      83       1       1       0       0       0       001010000D    133
     120       0      -9       1       0                    SREV       4D    134
     508      84       1       1       0       0       0       001010000D    135
     508       0       0       1       1                EDGELOOP       8D    136
     510      85       1       1       0       0       0       000010000D    137
     510       0      -9       1       1                    FACE       6D    138
     128      86       1       1       0       0       0       001010000D    139
     128       0      -9       6       0                  SPLSRF       3D    140
     508      92       1       1       0       0       0       001010000D    141
     508       0       0       1       1                EDGELOOP       9D    142
     508      93       1       1       0       0       0       001010000D    143
     508       0       0       1       1                EDGELOOP      10D    144
     510      94       1       1       0       0       0       000010000D    145
     510       0      -9       1       1                    FACE       7D    146
     110      95       1       1       0       0       0       001010000D    147
     110       0      -9       1       0                    LINE      15D    148
     110      96       1       1       0       0       0       001010000D    149
     110       0      -9       1       0                    LINE      16D    150
     120      97       1       1       0       0       0       001010000D    151
     120       0      -9       1       0                    SREV       5D    152
     508      98       1       1       0       0       0       001010000D    153
     508       0       0       1       1                EDGELOOP      11D    154
     510      99       1       1       0       0       0       000010000D    155
     510       0      -9       1       1                    FACE       8D    156
     110     100       1       1       0       0       0       001010000D    157
     110       0      -9       1       0                    LINE      17D    158
     110     101       1       1       0       0       0       001010000D    159
     110       0      -9       1       0                    LINE      18D    160
     120     102       1       1       0       0       0       001010000D    161
     120       0      -9       1       0                    SREV       6D    162
     508     103       1       1       0       0       0       001010000D    163
     508       0       0       1       1                EDGELOOP      12D    164
     510     104       1       1       0       0       0       000010000D    165
     510       0      -9       1       1                    FACE       9D    166
     514     105       1       1       0       0       0       000000000D    167
     514       0      -9       1       1                   SHELL       1D    168
     186     106       1       1       0       0       0       000000000D    169
     186       0      -9       1       0                    MSBR       1D    170
314,1.1D0,1.2D0,1D2;                                                   1P      1
314,1.1D1,1.1D1,1.1D1;                                                 3P      2
314,3.92D1,1.2D0,1.2D0;                                                5P      3
314,4.1D1,0D0,2.2D1;                                                   7P      4
314,6.66667D1,7.05882D1,7.84314D1;                                     9P      5
314,8.784D1,9.49D1,1D2;                                               11P      6
314,9.6D1,9.6D1,9.6D1;                                                13P      7
314,9.8D1,6.27D1,0D0;                                                 15P      8
314,1D2,1D2,9.49D1;                                                   17P      9
124,0D0,0D0,-1D0,0D0,0D0,1D0,0D0,0D0,1D0,0D0,0D0,0D0;                 19P     10
100,0D0,0D0,0D0,1.75D1,0D0,-1.75D1,0D0;                               21P     11
124,0D0,0D0,-1D0,0D0,0D0,-1D0,0D0,0D0,-1D0,0D0,0D0,0D0;               23P     12
100,0D0,0D0,0D0,1.75D1,0D0,-1.75D1,0D0;                               25P     13
110,0D0,7.6D1,0D0,-1D1,7.6D1,0D0;                                     27P     14
110,0D0,-7.6D1,0D0,-1D1,-7.6D1,0D0;                                   29P     15
124,0D0,0D0,-1D0,0D0,1D0,0D0,0D0,0D0,0D0,-1D0,0D0,0D0;                31P     16
100,0D0,0D0,0D0,7.6D1,0D0,-7.6D1,0D0;                                 33P     17
124,0D0,0D0,1D0,0D0,1D0,0D0,0D0,0D0,0D0,1D0,0D0,0D0;                  35P     18
100,0D0,0D0,0D0,7.6D1,0D0,-7.6D1,0D0;                                 37P     19
124,0D0,0D0,1D0,-1D1,1D0,0D0,0D0,0D0,0D0,1D0,0D0,0D0;                 39P     20
100,0D0,0D0,0D0,7.6D1,0D0,-7.6D1,0D0;                                 41P     21
124,0D0,0D0,-1D0,-1D1,1D0,0D0,0D0,0D0,0D0,-1D0,0D0,0D0;               43P     22
100,0D0,0D0,0D0,7.6D1,0D0,-7.6D1,0D0;                                 45P     23
110,-1D1,6.8D1,0D0,-2D1,6.8D1,0D0;                                    47P     24
110,-1D1,-6.8D1,0D0,-2D1,-6.8D1,0D0;                                  49P     25
124,0D0,0D0,-1D0,-1D1,1D0,0D0,0D0,0D0,0D0,-1D0,0D0,0D0;               51P     26
100,0D0,0D0,0D0,6.8D1,0D0,-6.8D1,0D0;                                 53P     27
124,0D0,0D0,1D0,-1D1,1D0,0D0,0D0,0D0,0D0,1D0,0D0,0D0;                 55P     28
100,0D0,0D0,0D0,6.8D1,0D0,-6.8D1,0D0;                                 57P     29
124,0D0,0D0,-1D0,-2D1,1D0,0D0,0D0,0D0,0D0,-1D0,0D0,0D0;               59P     30
100,0D0,0D0,0D0,6.8D1,0D0,-6.8D1,0D0;                                 61P     31
124,0D0,0D0,1D0,-2D1,1D0,0D0,0D0,0D0,0D0,1D0,0D0,0D0;                 63P     32
100,0D0,0D0,0D0,6.8D1,0D0,-6.8D1,0D0;                                 65P     33
124,0D0,0D0,-1D0,-2D1,0D0,1D0,0D0,0D0,1D0,0D0,0D0,0D0;                67P     34
100,0D0,0D0,0D0,1.75D1,0D0,-1.75D1,0D0;                               69P     35
124,0D0,0D0,-1D0,-2D1,0D0,-1D0,0D0,0D0,-1D0,0D0,0D0,0D0;              71P     36
100,0D0,0D0,0D0,1.75D1,0D0,-1.75D1,0D0;                               73P     37
110,-2D1,0D0,1.75D1,0D0,0D0,1.75D1;                                   75P     38
110,-2D1,0D0,-1.75D1,0D0,0D0,-1.75D1;                                 77P     39
502,12,0D0,7.6D1,0D0,-1D1,7.6D1,0D0,-1D1,6.8D1,0D0,-2D1,6.8D1,        79P     40
0D0,0D0,-7.6D1,0D0,-1D1,-7.6D1,0D0,-1D1,-6.8D1,0D0,-2D1,-6.8D1,       79P     41
0D0,-2D1,0D0,1.75D1,-2D1,0D0,-1.75D1,0D0,0D0,1.75D1,0D0,0D0,          79P     42
-1.75D1;                                                              79P     43
504,18,27,79,1,79,2,47,79,3,79,4,29,79,5,79,6,49,79,7,79,8,37,        81P     44
79,1,79,5,41,79,2,79,6,57,79,3,79,7,65,79,4,79,8,33,79,1,79,5,        81P     45
45,79,2,79,6,53,79,3,79,7,61,79,4,79,8,69,79,9,79,10,73,79,10,        81P     46
79,9,75,79,9,79,11,77,79,10,79,12,21,79,11,79,12,25,79,12,79,11;      81P     47
128,1,1,1,1,0,0,1,0,0,-7.904D1,-7.904D1,7.904D1,7.904D1,              83P     48
-7.906372018593D1,-7.906372018593D1,7.906372018593D1,                 83P     49
7.906372018593D1,1D0,1D0,1D0,1D0,0D0,7.904D1,7.906372018593D1,        83P     50
0D0,-7.904D1,7.906372018593D1,0D0,7.904D1,-7.906372018593D1,0D0,      83P     51
-7.904D1,-7.906372018593D1,-7.904D1,7.904D1,-7.906372018593D1,        83P     52
7.906372018593D1;                                                     83P     53
508,2,0,81,9,1,0,0,81,5,0,0;                                          85P     54
508,2,0,81,17,0,0,0,81,18,0,0;                                        87P     55
510,83,2,0,85,87;                                                     89P     56
110,-2.1D1,0D0,0D0,-2D1,0D0,0D0;                                      91P     57
110,-1.025910517506D1,-7.6D1,0D0,2.591051750615D-1,-7.6D1,0D0;        93P     58
120,91,93,-6.346017160251D0,-3.078760800518D0;                        95P     59
508,4,0,81,1,1,0,0,81,10,1,0,0,81,3,0,0,0,81,9,0,0;                   97P     60
510,95,1,0,97;                                                        99P     61
110,-2.1D1,0D0,0D0,-2D1,0D0,0D0;                                     101P     62
110,-1.025910517506D1,-7.6D1,0D0,2.591051750615D-1,-7.6D1,0D0;       103P     63
120,101,103,-3.204424506662D0,6.283185307180D-2;                     105P     64
508,4,0,81,1,0,0,0,81,5,1,0,0,81,3,1,0,0,81,6,0,0;                   107P     65
510,105,1,0,107;                                                     109P     66
128,1,1,1,1,0,0,1,0,0,-7.904D1,-7.904D1,7.904D1,7.904D1,             111P     67
-7.906372018593D1,-7.906372018593D1,7.906372018593D1,                111P     68
7.906372018593D1,1D0,1D0,1D0,1D0,-1D1,7.904D1,7.906372018593D1,      111P     69
-1D1,-7.904D1,7.906372018593D1,-1D1,7.904D1,-7.906372018593D1,       111P     70
-1D1,-7.904D1,-7.906372018593D1,-7.904D1,7.904D1,                    111P     71
-7.906372018593D1,7.906372018593D1;                                  111P     72
508,2,0,81,6,1,0,0,81,10,0,0;                                        113P     73
508,2,0,81,11,1,0,0,81,7,0,0;                                        115P     74
510,111,2,0,113,115;                                                 117P     75
110,-2.1D1,0D0,0D0,-2D1,0D0,0D0;                                     119P     76
110,-2.025910517506D1,-6.8D1,0D0,-9.740894824939D0,-6.8D1,0D0;       121P     77
120,119,121,-6.346017160251D0,-3.078760800518D0;                     123P     78
508,4,0,81,2,1,0,0,81,12,1,0,0,81,4,0,0,0,81,11,0,0;                 125P     79
510,123,1,0,125;                                                     127P     80
110,-2.1D1,0D0,0D0,-2D1,0D0,0D0;                                     129P     81
110,-2.025910517506D1,-6.8D1,0D0,-9.740894824939D0,-6.8D1,0D0;       131P     82
120,129,131,-3.204424506662D0,6.283185307180D-2;                     133P     83
508,4,0,81,2,0,0,0,81,7,1,0,0,81,4,1,0,0,81,8,0,0;                   135P     84
510,133,1,0,135;                                                     137P     85
128,1,1,1,1,0,0,1,0,0,-7.072D1,-7.072D1,7.072D1,7.072D1,             139P     86
-7.074385367882D1,-7.074385367882D1,7.074385367882D1,                139P     87
7.074385367882D1,1D0,1D0,1D0,1D0,-2D1,7.072D1,7.074385367882D1,      139P     88
-2D1,-7.072D1,7.074385367882D1,-2D1,7.072D1,-7.074385367882D1,       139P     89
-2D1,-7.072D1,-7.074385367882D1,-7.072D1,7.072D1,                    139P     90
-7.074385367882D1,7.074385367882D1;                                  139P     91
508,2,0,81,12,0,0,0,81,8,1,0;                                        141P     92
508,2,0,81,13,1,0,0,81,14,1,0;                                       143P     93
510,139,2,0,141,143;                                                 145P     94
110,-2D1,0D0,0D0,-2.1D1,0D0,0D0;                                     147P     95
110,4D-1,0D0,1.75D1,-2.04D1,0D0,1.75D1;                              149P     96
120,147,149,-6.283185307180D-2,3.204424506662D0;                     151P     97
508,4,0,81,13,0,0,0,81,15,1,0,0,81,17,1,0,0,81,16,0,0;               153P     98
510,151,1,0,153;                                                     155P     99
110,-2D1,0D0,0D0,-2.1D1,0D0,0D0;                                     157P    100
110,4D-1,0D0,1.75D1,-2.04D1,0D0,1.75D1;                              159P    101
120,157,159,3.078760800518D0,6.346017160251D0;                       161P    102
508,4,0,81,14,0,0,0,81,16,1,0,0,81,18,1,0,0,81,15,0,0;               163P    103
510,161,1,0,163;                                                     165P    104
514,9,89,1,99,1,109,1,117,0,127,1,137,1,145,0,155,0,165,0;           167P    105
186,167,1,0;                                                         169P    106
S      1G      4D    170P    106                                        T      1
