 PTC IGES file: shuang-005sd5sd7.igs                                    S      1
1H,,1H;,16HSHUANG-005SD5SD7,20Hshuang-005sd5sd7.igs,                    G      1
49HPro/ENGINEER by Parametric Technology Corporation,7H2004110,32,38,7, G      2
38,15,16HSHUANG-005SD5SD7,1.,2,2HMM,32768,0.5,13H080428.081010,         G      3
0.00758669,  75.87,10Hliuxiaokun,7HUnknown,10,0,13H080428.081010;       G      4
     314       1       1       1       0       0       0       001000200D      1
     314       0       4       1       0                   COLOR       1D      2
     314       2       1       1       0       0       0       001000200D      3
     314       0       1       1       0                   COLOR       2D      4
     314       3       1       1       0       0       0       001000200D      5
     314       0       1       1       0                   COLOR       3D      6
     314       4       1       1       0       0       0       001000200D      7
     314       0       1       1       0                   COLOR       4D      8
     314       5       1       1       0       0       0       001000200D      9
     314       0       8       1       0                   COLOR       5D     10
     314       6       1       1       0       0       0       001000200D     11
     314       0       8       1       0                   COLOR       6D     12
     314       7       1       1       0       0       0       001000200D     13
     314       0       5       1       0                   COLOR       7D     14
     314       8       1       1       0       0       0       001000200D     15
     314       0       8       1       0                   COLOR       8D     16
     124       9       1       1       0       0       0       001000000D     17
     124       0       0       1       0                   XFORM       1D     18
     100      10       1       1       0       0      17       001010000D     19
     100       0       0       1       0                     ARC       1D     20
     124      11       1       1       0       0       0       001000000D     21
     124       0       0       1       0                   XFORM       2D     22
     100      12       1       1       0       0      21       001010000D     23
     100       0       0       1       0                     ARC       2D     24
     124      13       1       1       0       0       0       001000000D     25
     124       0       0       1       0                   XFORM       3D     26
     100      14       1       1       0       0      25       001010000D     27
     100       0       0       1       0                     ARC       3D     28
     124      15       1       1       0       0       0       001000000D     29
     124       0       0       1       0                   XFORM       4D     30
     100      16       1       1       0       0      29       001010000D     31
     100       0       0       1       0                     ARC       4D     32
     110      17       1       1       0       0       0       001010000D     33
     110       0       0       1       0                    LINE       1D     34
     110      18       1       1       0       0       0       001010000D     35
     110       0       0       1       0                    LINE       2D     36
     124      19       1       1       0       0       0       001000000D     37
     124       0       0       1       0                   XFORM       5D     38
     100      20       1       1       0       0      37       001010000D     39
     100       0       0       1       0                     ARC       5D     40
     124      21       1       1       0       0       0       001000000D     41
     124       0       0       1       0                   XFORM       6D     42
     100      22       1       1       0       0      41       001010000D     43
     100       0       0       1       0                     ARC       6D     44
     124      23       1       1       0       0       0       001000000D     45
     124       0       0       1       0                   XFORM       7D     46
     100      24       1       1       0       0      45       001010000D     47
     100       0       0       1       0                     ARC       7D     48
     124      25       1       1       0       0       0       001000000D     49
     124       0       0       1       0                   XFORM       8D     50
     100      26       1       1       0       0      49       001010000D     51
     100       0       0       1       0                     ARC       8D     52
     110      27       1       1       0       0       0       001010000D     53
     110       0       0       1       0                    LINE       3D     54
     110      28       1       1       0       0       0       001010000D     55
     110       0       0       1       0                    LINE       4D     56
     502      29       1       1       0       0       0       001010000D     57
     502       0       0       3       1                  VERTEX       1D     58
     504      32       1       1       0       0       0       000010001D     59
     504       0       0       3       1                    EDGE       1D     60
     128      35       1       1       0       0       0       001010000D     61
     128       0       0       4       0                  SPLSRF       1D     62
     508      39       1       1       0       0       0       001010000D     63
     508       0       0       1       1                EDGELOOP       1D     64
     508      40       1       1       0       0       0       001010000D     65
     508       0       0       1       1                EDGELOOP       2D     66
     510      41       1       1       0       0       0       000010000D     67
     510       0       0       1       1                    FACE       1D     68
     110      42       1       1       0       0       0       001010000D     69
     110       0       0       1       0                    LINE       5D     70
     110      43       1       1       0       0       0       001010000D     71
     110       0       0       1       0                    LINE       6D     72
     120      44       1       1       0       0       0       001010000D     73
     120       0       0       1       0                    SREV       1D     74
     508      45       1       1       0       0       0       001010000D     75
     508       0       0       1       1                EDGELOOP       3D     76
     510      46       1       1       0       0       0       000010000D     77
     510       0       0       1       1                    FACE       2D     78
     110      47       1       1       0       0       0       001010000D     79
     110       0       0       1       0                    LINE       7D     80
     110      48       1       1       0       0       0       001010000D     81
     110       0       0       1       0                    LINE       8D     82
     120      49       1       1       0       0       0       001010000D     83
     120       0       0       1       0                    SREV       2D     84
     508      50       1       1       0       0       0       001010000D     85
     508       0       0       1       1                EDGELOOP       4D     86
     510      51       1       1       0       0       0       000010000D     87
     510       0       0       1       1                    FACE       3D     88
     128      52       1       1       0       0       0       001010000D     89
     128       0       0       4       0                  SPLSRF       2D     90
     508      56       1       1       0       0       0       001010000D     91
     508       0       0       1       1                EDGELOOP       5D     92
     508      57       1       1       0       0       0       001010000D     93
     508       0       0       1       1                EDGELOOP       6D     94
     510      58       1       1       0       0       0       000010000D     95
     510       0       0       1       1                    FACE       4D     96
     110      59       1       1       0       0       0       001010000D     97
     110       0       0       1       0                    LINE       9D     98
     110      60       1       1       0       0       0       001010000D     99
     110       0       0       1       0                    LINE      10D    100
     120      61       1       1       0       0       0       001010000D    101
     120       0       0       1       0                    SREV       3D    102
     508      62       1       1       0       0       0       001010000D    103
     508       0       0       1       1                EDGELOOP       7D    104
     510      63       1       1       0       0       0       000010000D    105
     510       0       0       1       1                    FACE       5D    106
     110      64       1       1       0       0       0       001010000D    107
     110       0       0       1       0                    LINE      11D    108
     110      65       1       1       0       0       0       001010000D    109
     110       0       0       1       0                    LINE      12D    110
     120      66       1       1       0       0       0       001010000D    111
     120       0       0       1       0                    SREV       4D    112
     508      67       1       1       0       0       0       001010000D    113
     508       0       0       1       1                EDGELOOP       8D    114
     510      68       1       1       0       0       0       000010000D    115
     510       0       0       1       1                    FACE       6D    116
     514      69       1       1       0       0       0       000000000D    117
     514       0       0       1       1                   SHELL       1D    118
     186      70       1       1       0       0       0       000000000D    119
     186       0       0       1       0                    MSBR       1D    120
314,1.1D0,1.2D0,1D2;                                                   1P      1
314,1.1D1,1.1D1,1.1D1;                                                 3P      2
314,3.92D1,1.2D0,1.2D0;                                                5P      3
314,4.1D1,0D0,2.2D1;                                                   7P      4
314,8.784D1,9.49D1,1D2;                                                9P      5
314,9.6D1,9.6D1,9.6D1;                                                11P      6
314,9.8D1,6.27D1,0D0;                                                 13P      7
314,1D2,1D2,9.49D1;                                                   15P      8
124,1D0,0D0,0D0,0D0,0D0,0D0,-1D0,-1.375D1,0D0,1D0,0D0,0D0;            17P      9
100,0D0,0D0,0D0,1.27D1,0D0,-1.27D1,0D0;                               19P     10
124,-1D0,0D0,0D0,0D0,0D0,0D0,-1D0,-1.375D1,0D0,-1D0,0D0,0D0;          21P     11
100,0D0,0D0,0D0,1.27D1,0D0,-1.27D1,0D0;                               23P     12
124,1D0,0D0,0D0,0D0,0D0,0D0,1D0,-1.375D1,0D0,-1D0,0D0,0D0;            25P     13
100,0D0,0D0,0D0,2.5D1,0D0,-2.5D1,0D0;                                 27P     14
124,-1D0,0D0,0D0,0D0,0D0,0D0,1D0,-1.375D1,0D0,1D0,0D0,0D0;            29P     15
100,0D0,0D0,0D0,2.5D1,0D0,-2.5D1,0D0;                                 31P     16
110,1.27D1,-1.375D1,0D0,1.27D1,1.375D1,0D0;                           33P     17
110,-1.27D1,-1.375D1,0D0,-1.27D1,1.375D1,0D0;                         35P     18
124,1D0,0D0,0D0,0D0,0D0,0D0,-1D0,1.375D1,0D0,1D0,0D0,0D0;             37P     19
100,0D0,0D0,0D0,1.27D1,0D0,-1.27D1,0D0;                               39P     20
124,-1D0,0D0,0D0,0D0,0D0,0D0,-1D0,1.375D1,0D0,-1D0,0D0,0D0;           41P     21
100,0D0,0D0,0D0,1.27D1,0D0,-1.27D1,0D0;                               43P     22
124,1D0,0D0,0D0,0D0,0D0,0D0,1D0,1.375D1,0D0,-1D0,0D0,0D0;             45P     23
100,0D0,0D0,0D0,2.5D1,0D0,-2.5D1,0D0;                                 47P     24
124,-1D0,0D0,0D0,0D0,0D0,0D0,1D0,1.375D1,0D0,1D0,0D0,0D0;             49P     25
100,0D0,0D0,0D0,2.5D1,0D0,-2.5D1,0D0;                                 51P     26
110,2.5D1,-1.375D1,0D0,2.5D1,1.375D1,0D0;                             53P     27
110,-2.5D1,-1.375D1,0D0,-2.5D1,1.375D1,0D0;                           55P     28
502,8,1.27D1,-1.375D1,0D0,-1.27D1,-1.375D1,0D0,2.5D1,-1.375D1,        57P     29
0D0,-2.5D1,-1.375D1,0D0,1.27D1,1.375D1,0D0,-1.27D1,1.375D1,0D0,       57P     30
2.5D1,1.375D1,0D0,-2.5D1,1.375D1,0D0;                                 57P     31
504,12,19,57,1,57,2,23,57,2,57,1,27,57,3,57,4,31,57,4,57,3,39,        59P     32
57,5,57,6,43,57,6,57,5,47,57,7,57,8,51,57,8,57,7,33,57,1,57,5,        59P     33
35,57,2,57,6,53,57,3,57,7,55,57,4,57,8;                               59P     34
128,1,1,1,1,0,0,1,0,0,-2.6D1,-2.6D1,2.6D1,2.6D1,-2.6D1,-2.6D1,        61P     35
2.6D1,2.6D1,1D0,1D0,1D0,1D0,-2.6D1,-1.375D1,2.6D1,2.6D1,              61P     36
-1.375D1,2.6D1,-2.6D1,-1.375D1,-2.6D1,2.6D1,-1.375D1,-2.6D1,          61P     37
-2.6D1,2.6D1,-2.6D1,2.6D1;                                            61P     38
508,2,0,59,3,1,0,0,59,4,1,0;                                          63P     39
508,2,0,59,1,1,0,0,59,2,1,0;                                          65P     40
510,61,2,0,63,65;                                                     67P     41
110,0D0,-1.375D1,0D0,0D0,-1.275D1,0D0;                                69P     42
110,1.27D1,-1.43D1,0D0,1.27D1,1.43D1,0D0;                             71P     43
120,69,71,3.078760800518D0,6.346017160251D0;                          73P     44
508,4,0,59,1,0,0,0,59,9,1,0,0,59,5,1,0,0,59,10,0,0;                   75P     45
510,73,1,0,75;                                                        77P     46
110,0D0,-1.375D1,0D0,0D0,-1.275D1,0D0;                                79P     47
110,1.27D1,-1.43D1,0D0,1.27D1,1.43D1,0D0;                             81P     48
120,79,81,-6.283185307180D-2,3.204424506662D0;                        83P     49
508,4,0,59,2,0,0,0,59,10,1,0,0,59,6,1,0,0,59,9,0,0;                   85P     50
510,83,1,0,85;                                                        87P     51
128,1,1,1,1,0,0,1,0,0,-2.6D1,-2.6D1,2.6D1,2.6D1,-2.6D1,-2.6D1,        89P     52
2.6D1,2.6D1,1D0,1D0,1D0,1D0,-2.6D1,1.375D1,2.6D1,2.6D1,1.375D1,       89P     53
2.6D1,-2.6D1,1.375D1,-2.6D1,2.6D1,1.375D1,-2.6D1,-2.6D1,2.6D1,        89P     54
-2.6D1,2.6D1;                                                         89P     55
508,2,0,59,7,0,0,0,59,8,0,0;                                          91P     56
508,2,0,59,5,0,0,0,59,6,0,0;                                          93P     57
510,89,2,0,91,93;                                                     95P     58
110,0D0,-1.375D1,0D0,0D0,-1.275D1,0D0;                                97P     59
110,2.5D1,-1.43D1,0D0,2.5D1,1.43D1,0D0;                               99P     60
120,97,99,-6.283185307180D-2,3.204424506662D0;                       101P     61
508,4,0,59,3,0,0,0,59,11,1,0,0,59,7,1,0,0,59,12,0,0;                 103P     62
510,101,1,0,103;                                                     105P     63
110,0D0,-1.375D1,0D0,0D0,-1.275D1,0D0;                               107P     64
110,2.5D1,-1.43D1,0D0,2.5D1,1.43D1,0D0;                              109P     65
120,107,109,3.078760800518D0,6.346017160251D0;                       111P     66
508,4,0,59,4,0,0,0,59,12,1,0,0,59,8,1,0,0,59,11,0,0;                 113P     67
510,111,1,0,113;                                                     115P     68
514,6,67,0,77,0,87,0,95,1,105,1,115,1;                               117P     69
186,117,1,0;                                                         119P     70
S      1G      4D    120P     70                                        T      1
