 PTC IGES file: shuang-004sd5sd7.igs                                    S      1
1H,,1H;,16HSHUANG-004SD5SD7,20Hshuang-004sd5sd7.igs,                    G      1
49HPro/ENGINEER by Parametric Technology Corporation,7H2004110,32,38,7, G      2
38,15,16HSHUANG-004SD5SD7,1.,2,2HMM,32768,0.5,13H080428.081010,         G      3
0.0362333,362.348,10Hliuxiaokun,7HUnknown,10,0,13H080428.081010;        G      4
     314       1       1       1       0       0       0       001000200D      1
     314       0       4       1       0                   COLOR       1D      2
     314       2       1       1       0       0       0       001000200D      3
     314       0       1       1       0                   COLOR       2D      4
     314       3       1       1       0       0       0       001000200D      5
     314       0       1       1       0                   COLOR       3D      6
     314       4       1       1       0       0       0       001000200D      7
     314       0       1       1       0                   COLOR       4D      8
     314       5       1       1       0       0       0       001000200D      9
     314       0       8       1       0                   COLOR       5D     10
     314       6       1       1       0       0       0       001000200D     11
     314       0       8       1       0                   COLOR       6D     12
     314       7       1       1       0       0       0       001000200D     13
     314       0       8       1       0                   COLOR       7D     14
     314       8       1       1       0       0       0       001000200D     15
     314       0       5       1       0                   COLOR       8D     16
     314       9       1       1       0       0       0       001000200D     17
     314       0       8       1       0                   COLOR       9D     18
     110      10       1       1       0       0       0       001010000D     19
     110       0      -9       1       0                    LINE       1D     20
     124      11       1       1       0       0       0       001000000D     21
     124       0       0       1       0                   XFORM       1D     22
     100      12       1       1       0       0      21       001010000D     23
     100       0      -9       1       0                     ARC       1D     24
     110      13       1       1       0       0       0       001010000D     25
     110       0      -9       1       0                    LINE       2D     26
     124      14       1       1       0       0       0       001000000D     27
     124       0       0       1       0                   XFORM       2D     28
     100      15       1       1       0       0      27       001010000D     29
     100       0      -9       1       0                     ARC       2D     30
     124      16       1       1       0       0       0       001000000D     31
     124       0       0       1       0                   XFORM       3D     32
     100      17       1       1       0       0      31       001010000D     33
     100       0      -9       1       0                     ARC       3D     34
     110      18       1       1       0       0       0       001010000D     35
     110       0      -9       1       0                    LINE       3D     36
     124      19       1       1       0       0       0       001000000D     37
     124       0       0       1       0                   XFORM       4D     38
     100      20       1       1       0       0      37       001010000D     39
     100       0      -9       1       0                     ARC       4D     40
     110      21       1       1       0       0       0       001010000D     41
     110       0      -9       1       0                    LINE       4D     42
     110      22       1       1       0       0       0       001010000D     43
     110       0      -9       1       0                    LINE       5D     44
     110      23       1       1       0       0       0       001010000D     45
     110       0      -9       1       0                    LINE       6D     46
     110      24       1       1       0       0       0       001010000D     47
     110       0      -9       1       0                    LINE       7D     48
     110      25       1       1       0       0       0       001010000D     49
     110       0      -9       1       0                    LINE       8D     50
     110      26       1       1       0       0       0       001010000D     51
     110       0      -9       1       0                    LINE       9D     52
     124      27       1       1       0       0       0       001000000D     53
     124       0       0       1       0                   XFORM       5D     54
     100      28       1       1       0       0      53       001010000D     55
     100       0      -9       1       0                     ARC       5D     56
     110      29       1       1       0       0       0       001010000D     57
     110       0      -9       1       0                    LINE      10D     58
     124      30       1       1       0       0       0       001000000D     59
     124       0       0       1       0                   XFORM       6D     60
     100      31       1       1       0       0      59       001010000D     61
     100       0      -9       1       0                     ARC       6D     62
     124      32       1       1       0       0       0       001000000D     63
     124       0       0       1       0                   XFORM       7D     64
     100      33       1       1       0       0      63       001010000D     65
     100       0      -9       1       0                     ARC       7D     66
     110      34       1       1       0       0       0       001010000D     67
     110       0      -9       1       0                    LINE      11D     68
     124      35       1       1       0       0       0       001000000D     69
     124       0       0       1       0                   XFORM       8D     70
     100      36       1       1       0       0      69       001010000D     71
     100       0      -9       1       0                     ARC       8D     72
     110      37       1       1       0       0       0       001010000D     73
     110       0      -9       1       0                    LINE      12D     74
     110      38       1       1       0       0       0       001010000D     75
     110       0      -9       1       0                    LINE      13D     76
     110      39       1       1       0       0       0       001010000D     77
     110       0      -9       1       0                    LINE      14D     78
     110      40       1       1       0       0       0       001010000D     79
     110       0      -9       1       0                    LINE      15D     80
     110      41       1       1       0       0       0       001010000D     81
     110       0      -9       1       0                    LINE      16D     82
     502      42       1       1       0       0       0       001010000D     83
     502       0      -9       7       1                  VERTEX       1D     84
     504      49       1       1       0       0       0       000010001D     85
     504       0      -9       6       1                    EDGE       1D     86
     128      55       1       1       0       0       0       001010000D     87
     128       0      -9       5       0                  SPLSRF       1D     88
     508      60       1       1       0       0       0       001010000D     89
     508       0       0       1       1                EDGELOOP       1D     90
     508      61       1       1       0       0       0       001010000D     91
     508       0       0       1       1                EDGELOOP       2D     92
     510      62       1       1       0       0       0       000010000D     93
     510       0      -9       1       1                    FACE       1D     94
     128      63       1       1       0       0       0       001010000D     95
     128       0      -9       4       0                  SPLSRF       2D     96
     508      67       1       1       0       0       0       001010000D     97
     508       0       0       1       1                EDGELOOP       3D     98
     510      68       1       1       0       0       0       000010000D     99
     510       0      -9       1       1                    FACE       2D    100
     110      69       1       1       0       0       0       001010000D    101
     110       0      -9       1       0                    LINE      17D    102
     110      70       1       1       0       0       0       001010000D    103
     110       0      -9       1       0                    LINE      18D    104
     120      71       1       1       0       0       0       001010000D    105
     120       0      -9       1       0                    SREV       1D    106
     508      72       1       1       0       0       0       001010000D    107
     508       0       0       1       1                EDGELOOP       4D    108
     510      73       1       1       0       0       0       000010000D    109
     510       0      -9       1       1                    FACE       3D    110
     128      74       1       1       0       0       0       001010000D    111
     128       0      -9       4       0                  SPLSRF       3D    112
     508      78       1       1       0       0       0       001010000D    113
     508       0       0       1       1                EDGELOOP       5D    114
     510      79       1       1       0       0       0       000010000D    115
     510       0      -9       1       1                    FACE       4D    116
     110      80       1       1       0       0       0       001010000D    117
     110       0      -9       1       0                    LINE      19D    118
     110      81       1       1       0       0       0       001010000D    119
     110       0      -9       1       0                    LINE      20D    120
     120      82       1       1       0       0       0       001010000D    121
     120       0      -9       1       0                    SREV       2D    122
     508      83       1       1       0       0       0       001010000D    123
     508       0       0       1       1                EDGELOOP       6D    124
     510      84       1       1       0       0       0       000010000D    125
     510       0      -9       1       1                    FACE       5D    126
     128      85       1       1       0       0       0       001010000D    127
     128       0      -9       5       0                  SPLSRF       4D    128
     508      90       1       1       0       0       0       001010000D    129
     508       0       0       1       1                EDGELOOP       7D    130
     508      91       1       1       0       0       0       001010000D    131
     508       0       0       1       1                EDGELOOP       8D    132
     510      92       1       1       0       0       0       000010000D    133
     510       0      -9       1       1                    FACE       6D    134
     110      93       1       1       0       0       0       001010000D    135
     110       0      -9       1       0                    LINE      21D    136
     110      94       1       1       0       0       0       001010000D    137
     110       0      -9       1       0                    LINE      22D    138
     120      95       1       1       0       0       0       001010000D    139
     120       0      -9       1       0                    SREV       3D    140
     508      96       1       1       0       0       0       001010000D    141
     508       0       0       1       1                EDGELOOP       9D    142
     510      97       1       1       0       0       0       000010000D    143
     510       0      -9       1       1                    FACE       7D    144
     128      98       1       1       0       0       0       001010000D    145
     128       0      -9       4       0                  SPLSRF       5D    146
     508     102       1       1       0       0       0       001010000D    147
     508       0       0       1       1                EDGELOOP      10D    148
     510     103       1       1       0       0       0       000010000D    149
     510       0      -9       1       1                    FACE       8D    150
     110     104       1       1       0       0       0       001010000D    151
     110       0      -9       1       0                    LINE      23D    152
     110     105       1       1       0       0       0       001010000D    153
     110       0      -9       1       0                    LINE      24D    154
     120     106       1       1       0       0       0       001010000D    155
     120       0      -9       1       0                    SREV       4D    156
     508     107       1       1       0       0       0       001010000D    157
     508       0       0       1       1                EDGELOOP      11D    158
     510     108       1       1       0       0       0       000010000D    159
     510       0      -9       1       1                    FACE       9D    160
     128     109       1       1       0       0       0       001010000D    161
     128       0      -9       4       0                  SPLSRF       6D    162
     508     113       1       1       0       0       0       001010000D    163
     508       0       0       1       1                EDGELOOP      12D    164
     510     114       1       1       0       0       0       000010000D    165
     510       0      -9       1       1                    FACE      10D    166
     514     115       1       1       0       0       0       000000000D    167
     514       0      -9       2       1                   SHELL       1D    168
     186     117       1       1       0       0       0       000000000D    169
     186       0      -9       1       0                    MSBR       1D    170
314,1.1D0,1.2D0,1D2;                                                   1P      1
314,1.1D1,1.1D1,1.1D1;                                                 3P      2
314,3.92D1,1.2D0,1.2D0;                                                5P      3
314,4.1D1,0D0,2.2D1;                                                   7P      4
314,7.9D1,1D2,7.2D1;                                                   9P      5
314,8.784D1,9.49D1,1D2;                                               11P      6
314,9.6D1,9.6D1,9.6D1;                                                13P      7
314,9.8D1,6.27D1,0D0;                                                 15P      8
314,1D2,1D2,9.49D1;                                                   17P      9
110,-1.445D2,-1.375D1,-2.5D1,1.445D2,-1.375D1,-2.5D1;                 19P     10
124,0D0,1D0,0D0,1.445D2,0D0,0D0,-1D0,-1.375D1,-1D0,0D0,0D0,0D0;       21P     11
100,0D0,0D0,0D0,2.5D1,0D0,-2.5D1,-5.244963534670D-14;                 23P     12
110,1.445D2,-1.375D1,2.5D1,-1.445D2,-1.375D1,2.5D1;                   25P     13
124,0D0,-1D0,0D0,-1.445D2,0D0,0D0,-1D0,-1.375D1,1D0,0D0,0D0,0D0;      27P     14
100,0D0,0D0,0D0,2.5D1,0D0,-2.5D1,0D0;                                 29P     15
124,0D0,-1D0,0D0,-1.445D2,0D0,0D0,1D0,-1.375D1,-1D0,0D0,0D0,0D0;      31P     16
100,0D0,0D0,0D0,3.3D1,0D0,-3.3D1,0D0;                                 33P     17
110,-1.445D2,-1.375D1,3.3D1,1.445D2,-1.375D1,3.3D1;                   35P     18
124,0D0,1D0,0D0,1.445D2,0D0,0D0,1D0,-1.375D1,1D0,0D0,0D0,0D0;         37P     19
100,0D0,0D0,0D0,3.3D1,0D0,-3.3D1,-1.571631822080D-13;                 39P     20
110,1.445D2,-1.375D1,-3.3D1,-1.445D2,-1.375D1,-3.3D1;                 41P     21
110,-1.445D2,-1.375D1,-2.5D1,-1.445D2,1.375D1,-2.5D1;                 43P     22
110,-1.445D2,-1.375D1,2.5D1,-1.445D2,1.375D1,2.5D1;                   45P     23
110,1.445D2,-1.375D1,2.5D1,1.445D2,1.375D1,2.5D1;                     47P     24
110,1.445D2,-1.375D1,-2.5D1,1.445D2,1.375D1,-2.5D1;                   49P     25
110,-1.445D2,1.375D1,-2.5D1,1.445D2,1.375D1,-2.5D1;                   51P     26
124,0D0,-1D0,0D0,-1.445D2,0D0,0D0,-1D0,1.375D1,1D0,0D0,0D0,0D0;       53P     27
100,0D0,0D0,0D0,2.5D1,0D0,-2.5D1,0D0;                                 55P     28
110,1.445D2,1.375D1,2.5D1,-1.445D2,1.375D1,2.5D1;                     57P     29
124,0D0,1D0,0D0,1.445D2,0D0,0D0,-1D0,1.375D1,-1D0,0D0,0D0,0D0;        59P     30
100,0D0,0D0,0D0,2.5D1,0D0,-2.5D1,-5.244963534670D-14;                 61P     31
124,0D0,-1D0,0D0,-1.445D2,0D0,0D0,1D0,1.375D1,-1D0,0D0,0D0,0D0;       63P     32
100,0D0,0D0,0D0,3.3D1,0D0,-3.3D1,0D0;                                 65P     33
110,1.445D2,1.375D1,-3.3D1,-1.445D2,1.375D1,-3.3D1;                   67P     34
124,0D0,1D0,0D0,1.445D2,0D0,0D0,1D0,1.375D1,1D0,0D0,0D0,0D0;          69P     35
100,0D0,0D0,0D0,3.3D1,0D0,-3.3D1,-1.571631822080D-13;                 71P     36
110,-1.445D2,1.375D1,3.3D1,1.445D2,1.375D1,3.3D1;                     73P     37
110,-1.445D2,-1.375D1,-3.3D1,-1.445D2,1.375D1,-3.3D1;                 75P     38
110,1.445D2,-1.375D1,-3.3D1,1.445D2,1.375D1,-3.3D1;                   77P     39
110,1.445D2,-1.375D1,3.3D1,1.445D2,1.375D1,3.3D1;                     79P     40
110,-1.445D2,-1.375D1,3.3D1,-1.445D2,1.375D1,3.3D1;                   81P     41
502,16,-1.445D2,-1.375D1,-2.5D1,1.445D2,-1.375D1,-2.5D1,1.445D2,      83P     42
-1.375D1,2.5D1,-1.445D2,-1.375D1,2.5D1,-1.445D2,-1.375D1,-3.3D1,      83P     43
-1.445D2,-1.375D1,3.3D1,1.445D2,-1.375D1,3.3D1,1.445D2,-1.375D1,      83P     44
-3.3D1,-1.445D2,1.375D1,-2.5D1,1.445D2,1.375D1,-2.5D1,1.445D2,        83P     45
1.375D1,2.5D1,-1.445D2,1.375D1,2.5D1,-1.445D2,1.375D1,-3.3D1,         83P     46
-1.445D2,1.375D1,3.3D1,1.445D2,1.375D1,3.3D1,1.445D2,1.375D1,         83P     47
-3.3D1;                                                               83P     48
504,24,19,83,1,83,2,23,83,2,83,3,25,83,3,83,4,29,83,4,83,1,33,        85P     49
83,5,83,6,35,83,6,83,7,39,83,7,83,8,41,83,8,83,5,51,83,9,83,10,       85P     50
61,83,10,83,11,57,83,11,83,12,55,83,12,83,9,65,83,13,83,14,73,        85P     51
83,14,83,15,71,83,15,83,16,67,83,16,83,13,43,83,1,83,9,49,83,2,       85P     52
83,10,47,83,3,83,11,45,83,4,83,12,75,83,5,83,13,81,83,6,83,14,        85P     53
79,83,7,83,15,77,83,8,83,16;                                          85P     54
128,1,1,1,1,0,0,1,0,0,-1.846D2,-1.846D2,1.846D2,1.846D2,              87P     55
-3.432D1,-3.432D1,3.432D1,3.432D1,1D0,1D0,1D0,1D0,-1.846D2,           87P     56
-1.375D1,3.432D1,1.846D2,-1.375D1,3.432D1,-1.846D2,-1.375D1,          87P     57
-3.432D1,1.846D2,-1.375D1,-3.432D1,-1.846D2,1.846D2,-3.432D1,         87P     58
3.432D1;                                                              87P     59
508,4,0,85,5,1,0,0,85,6,1,0,0,85,7,1,0,0,85,8,1,0;                    89P     60
508,4,0,85,1,1,0,0,85,2,1,0,0,85,3,1,0,0,85,4,1,0;                    91P     61
510,87,2,0,89,91;                                                     93P     62
128,1,1,1,1,0,0,1,0,0,-5.78D0,-5.78D0,2.9478D2,2.9478D2,-5.5D-1,      95P     63
-5.5D-1,2.805D1,2.805D1,1D0,1D0,1D0,1D0,-1.5028D2,-1.43D1,            95P     64
-2.5D1,1.5028D2,-1.43D1,-2.5D1,-1.5028D2,1.43D1,-2.5D1,1.5028D2,      95P     65
1.43D1,-2.5D1,-5.78D0,2.9478D2,-5.5D-1,2.805D1;                       95P     66
508,4,0,85,1,0,0,0,85,17,1,0,0,85,9,1,0,0,85,18,0,0;                  97P     67
510,95,1,0,97;                                                        99P     68
110,-1.445D2,-1.375D1,0D0,-1.445D2,-1.275D1,0D0;                     101P     69
110,-1.195D2,-1.43D1,0D0,-1.195D2,1.43D1,0D0;                        103P     70
120,101,103,1.507964473723D0,4.775220833456D0;                       105P     71
508,4,0,85,4,0,0,0,85,20,1,0,0,85,12,1,0,0,85,17,0,0;                107P     72
510,105,1,0,107;                                                     109P     73
128,1,1,1,1,0,0,1,0,0,-5.78D0,-5.78D0,2.9478D2,2.9478D2,-5.5D-1,     111P     74
-5.5D-1,2.805D1,2.805D1,1D0,1D0,1D0,1D0,1.5028D2,-1.43D1,2.5D1,      111P     75
-1.5028D2,-1.43D1,2.5D1,1.5028D2,1.43D1,2.5D1,-1.5028D2,1.43D1,      111P     76
2.5D1,-5.78D0,2.9478D2,-5.5D-1,2.805D1;                              111P     77
508,4,0,85,3,0,0,0,85,19,1,0,0,85,11,1,0,0,85,20,0,0;                113P     78
510,111,1,0,113;                                                     115P     79
110,1.445D2,-1.375D1,0D0,1.445D2,-1.275D1,0D0;                       117P     80
110,1.695D2,-1.43D1,0D0,1.695D2,1.43D1,0D0;                          119P     81
120,117,119,4.649557127313D0,7.916813487046D0;                       121P     82
508,4,0,85,2,0,0,0,85,18,1,0,0,85,10,1,0,0,85,19,0,0;                123P     83
510,121,1,0,123;                                                     125P     84
128,1,1,1,1,0,0,1,0,0,-1.846D2,-1.846D2,1.846D2,1.846D2,             127P     85
-3.432D1,-3.432D1,3.432D1,3.432D1,1D0,1D0,1D0,1D0,-1.846D2,          127P     86
1.375D1,3.432D1,1.846D2,1.375D1,3.432D1,-1.846D2,1.375D1,            127P     87
-3.432D1,1.846D2,1.375D1,-3.432D1,-1.846D2,1.846D2,-3.432D1,         127P     88
3.432D1;                                                             127P     89
508,4,0,85,13,0,0,0,85,16,0,0,0,85,15,0,0,0,85,14,0,0;               129P     90
508,4,0,85,9,0,0,0,85,12,0,0,0,85,11,0,0,0,85,10,0,0;                131P     91
510,127,2,0,129,131;                                                 133P     92
110,-1.445D2,-1.375D1,0D0,-1.445D2,-1.275D1,0D0;                     135P     93
110,-1.115D2,-1.43D1,0D0,-1.115D2,1.43D1,0D0;                        137P     94
120,135,137,1.507964473723D0,4.775220833456D0;                       139P     95
508,4,0,85,5,0,0,0,85,21,1,0,0,85,13,1,0,0,85,22,0,0;                141P     96
510,139,1,0,141;                                                     143P     97
128,1,1,1,1,0,0,1,0,0,-5.78D0,-5.78D0,2.9478D2,2.9478D2,-5.5D-1,     145P     98
-5.5D-1,2.805D1,2.805D1,1D0,1D0,1D0,1D0,1.5028D2,-1.43D1,-3.3D1,     145P     99
-1.5028D2,-1.43D1,-3.3D1,1.5028D2,1.43D1,-3.3D1,-1.5028D2,           145P    100
1.43D1,-3.3D1,-5.78D0,2.9478D2,-5.5D-1,2.805D1;                      145P    101
508,4,0,85,8,0,0,0,85,24,1,0,0,85,16,1,0,0,85,21,0,0;                147P    102
510,145,1,0,147;                                                     149P    103
110,1.445D2,-1.375D1,0D0,1.445D2,-1.275D1,0D0;                       151P    104
110,1.775D2,-1.43D1,0D0,1.775D2,1.43D1,0D0;                          153P    105
120,151,153,4.649557127313D0,7.916813487046D0;                       155P    106
508,4,0,85,7,0,0,0,85,23,1,0,0,85,15,1,0,0,85,24,0,0;                157P    107
510,155,1,0,157;                                                     159P    108
128,1,1,1,1,0,0,1,0,0,-5.78D0,-5.78D0,2.9478D2,2.9478D2,-5.5D-1,     161P    109
-5.5D-1,2.805D1,2.805D1,1D0,1D0,1D0,1D0,-1.5028D2,-1.43D1,3.3D1,     161P    110
1.5028D2,-1.43D1,3.3D1,-1.5028D2,1.43D1,3.3D1,1.5028D2,1.43D1,       161P    111
3.3D1,-5.78D0,2.9478D2,-5.5D-1,2.805D1;                              161P    112
508,4,0,85,6,0,0,0,85,22,1,0,0,85,14,1,0,0,85,23,0,0;                163P    113
510,161,1,0,163;                                                     165P    114
514,10,93,0,99,1,109,0,115,1,125,0,133,1,143,1,149,1,159,1,165,      167P    115
1;                                                                   167P    116
186,167,1,0;                                                         169P    117
S      1G      4D    170P    117                                        T      1
