 PTC IGES file: prt0028.igs                                             S      1
1H,,1H;,7HPRT0028,11Hprt0028.igs,                                       G      1
49HPro/ENGINEER by Parametric Technology Corporation,7H2004110,32,38,7, G      2
38,15,7HPRT0028,1.,2,2HMM,32768,0.5,13H080428.081004,0.171403, 1714.1,  G      3
10Hliuxiaokun,7HUnknown,10,0,13H080428.081004;                          G      4
     314       1       1       1       0       0       0       001000200D      1
     314       0       4       1       0                   COLOR       1D      2
     314       2       1       1       0       0       0       001000200D      3
     314       0       1       1       0                   COLOR       2D      4
     314       3       1       1       0       0       0       001000200D      5
     314       0       1       1       0                   COLOR       3D      6
     314       4       1       1       0       0       0       001000200D      7
     314       0       1       1       0                   COLOR       4D      8
     314       5       1       1       0       0       0       001000200D      9
     314       0       4       1       0                   COLOR       5D     10
     314       6       1       1       0       0       0       001000200D     11
     314       0       8       1       0                   COLOR       6D     12
     314       7       1       1       0       0       0       001000200D     13
     314       0       8       1       0                   COLOR       7D     14
     314       8       1       1       0       0       0       001000200D     15
     314       0       5       1       0                   COLOR       8D     16
     314       9       1       1       0       0       0       001000200D     17
     314       0       8       1       0                   COLOR       9D     18
     124      10       1       1       0       0       0       001000000D     19
     124       0       0       1       0                   XFORM       1D     20
     100      11       1       1       0       0      19       001010000D     21
     100       0      -9       1       0                     ARC       1D     22
     124      12       1       1       0       0       0       001000000D     23
     124       0       0       1       0                   XFORM       2D     24
     100      13       1       1       0       0      23       001010000D     25
     100       0      -9       1       0                     ARC       2D     26
     110      14       1       1       0       0       0       001010000D     27
     110       0      -9       1       0                    LINE       1D     28
     110      15       1       1       0       0       0       001010000D     29
     110       0      -9       1       0                    LINE       2D     30
     124      16       1       1       0       0       0       001000000D     31
     124       0       0       1       0                   XFORM       3D     32
     100      17       1       1       0       0      31       001010000D     33
     100       0      -9       1       0                     ARC       3D     34
     124      18       1       1       0       0       0       001000000D     35
     124       0       0       1       0                   XFORM       4D     36
     100      19       1       1       0       0      35       001010000D     37
     100       0      -9       1       0                     ARC       4D     38
     502      20       1       1       0       0       0       001010000D     39
     502       0      -9       2       1                  VERTEX       1D     40
     504      22       1       1       0       0       0       001010001D     41
     504       0      -9       2       1                    EDGE       1D     42
     128      24       1       1       0       0       0       001010000D     43
     128       0      -9       8       0                  SPLSRF       1D     44
     508      32       1       1       0       0       0       001010000D     45
     508       0       0       1       1                EDGELOOP       1D     46
     510      33       1       1       0       0       0       001010000D     47
     510       0      -9       1       1                    FACE       1D     48
     110      34       1       1       0       0       0       001010000D     49
     110       0      -9       1       0                    LINE       3D     50
     110      35       1       1       0       0       0       001010000D     51
     110       0      -9       1       0                    LINE       4D     52
     120      36       1       1       0       0       0       001010000D     53
     120       0      -9       1       0                    SREV       1D     54
     508      37       1       1       0       0       0       001010000D     55
     508       0       0       1       1                EDGELOOP       2D     56
     510      38       1       1       0       0       0       001010000D     57
     510       0      -9       1       1                    FACE       2D     58
     110      39       1       1       0       0       0       001010000D     59
     110       0      -9       1       0                    LINE       5D     60
     110      40       1       1       0       0       0       001010000D     61
     110       0      -9       1       0                    LINE       6D     62
     120      41       1       1       0       0       0       001010000D     63
     120       0      -9       1       0                    SREV       2D     64
     508      42       1       1       0       0       0       001010000D     65
     508       0       0       1       1                EDGELOOP       3D     66
     510      43       1       1       0       0       0       001010000D     67
     510       0      -9       1       1                    FACE       3D     68
     128      44       1       1       0       0       0       001010000D     69
     128       0      -9       8       0                  SPLSRF       2D     70
     508      52       1       1       0       0       0       001010000D     71
     508       0       0       1       1                EDGELOOP       4D     72
     510      53       1       1       0       0       0       001010000D     73
     510       0      -9       1       1                    FACE       4D     74
     514      54       1       1       0       0       0       001000000D     75
     514       0      -9       1       1                   SHELL       1D     76
     186      55       1       1       0       0       0       000000000D     77
     186       0      -9       1       0                    MSBR       1D     78
     124      56       1       1       0       0       0       001000000D     79
     124       0       0       1       0                   XFORM       5D     80
     100      57       1       1       0       0      79       001010000D     81
     100       0      -9       1       0                     ARC       5D     82
     124      58       1       1       0       0       0       001000000D     83
     124       0       0       1       0                   XFORM       6D     84
     100      59       1       1       0       0      83       001010000D     85
     100       0      -9       1       0                     ARC       6D     86
     110      60       1       1       0       0       0       001010000D     87
     110       0      -9       1       0                    LINE       7D     88
     110      61       1       1       0       0       0       001010000D     89
     110       0      -9       1       0                    LINE       8D     90
     124      62       1       1       0       0       0       001000000D     91
     124       0       0       1       0                   XFORM       7D     92
     100      63       1       1       0       0      91       001010000D     93
     100       0      -9       1       0                     ARC       7D     94
     124      64       1       1       0       0       0       001000000D     95
     124       0       0       1       0                   XFORM       8D     96
     100      65       1       1       0       0      95       001010000D     97
     100       0      -9       1       0                     ARC       8D     98
     502      66       1       1       0       0       0       001010000D     99
     502       0      -9       2       1                  VERTEX       2D    100
     504      68       1       1       0       0       0       001010001D    101
     504       0      -9       2       1                    EDGE       2D    102
     128      70       1       1       0       0       0       001010000D    103
     128       0      -9       8       0                  SPLSRF       3D    104
     508      78       1       1       0       0       0       001010000D    105
     508       0       0       1       1                EDGELOOP       5D    106
     510      79       1       1       0       0       0       001010000D    107
     510       0      -9       1       1                    FACE       5D    108
     110      80       1       1       0       0       0       001010000D    109
     110       0      -9       1       0                    LINE       9D    110
     110      81       1       1       0       0       0       001010000D    111
     110       0      -9       1       0                    LINE      10D    112
     120      82       1       1       0       0       0       001010000D    113
     120       0      -9       1       0                    SREV       3D    114
     508      83       1       1       0       0       0       001010000D    115
     508       0       0       1       1                EDGELOOP       6D    116
     510      84       1       1       0       0       0       001010000D    117
     510       0      -9       1       1                    FACE       6D    118
     110      85       1       1       0       0       0       001010000D    119
     110       0      -9       1       0                    LINE      11D    120
     110      86       1       1       0       0       0       001010000D    121
     110       0      -9       1       0                    LINE      12D    122
     120      87       1       1       0       0       0       001010000D    123
     120       0      -9       1       0                    SREV       4D    124
     508      88       1       1       0       0       0       001010000D    125
     508       0       0       1       1                EDGELOOP       7D    126
     510      89       1       1       0       0       0       001010000D    127
     510       0      -9       1       1                    FACE       7D    128
     128      90       1       1       0       0       0       001010000D    129
     128       0      -9       8       0                  SPLSRF       4D    130
     508      98       1       1       0       0       0       001010000D    131
     508       0       0       1       1                EDGELOOP       8D    132
     510      99       1       1       0       0       0       001010000D    133
     510       0      -9       1       1                    FACE       8D    134
     514     100       1       1       0       0       0       001000000D    135
     514       0      -9       1       1                   SHELL       2D    136
     186     101       1       1       0       0       0       000000000D    137
     186       0      -9       1       0                    MSBR       2D    138
314,1.1D0,1.2D0,1D2;                                                   1P      1
314,1.1D1,1.1D1,1.1D1;                                                 3P      2
314,3.92D1,1.2D0,1.2D0;                                                5P      3
314,4.1D1,0D0,2.2D1;                                                   7P      4
314,4.71D1,2.35D1,5.88D1;                                              9P      5
314,8.784D1,9.49D1,1D2;                                               11P      6
314,9.6D1,9.6D1,9.6D1;                                                13P      7
314,9.8D1,6.27D1,0D0;                                                 15P      8
314,1D2,1D2,9.49D1;                                                   17P      9
124,1D0,0D0,0D0,-1.15D2,0D0,0D0,1D0,8.453D2,0D0,-1D0,0D0,2.5D2;       19P     10
100,0D0,0D0,0D0,1D1,0D0,-1D1,0D0;                                     21P     11
124,-1D0,0D0,0D0,-1.15D2,0D0,0D0,1D0,8.453D2,0D0,1D0,0D0,2.5D2;       23P     12
100,0D0,0D0,0D0,1D1,0D0,-1D1,0D0;                                     25P     13
110,-1.05D2,8.453D2,2.5D2,-1.05D2,2.4453D3,2.5D2;                     27P     14
110,-1.25D2,8.453D2,2.5D2,-1.25D2,2.4453D3,2.5D2;                     29P     15
124,1D0,0D0,0D0,-1.15D2,0D0,0D0,1D0,2.4453D3,0D0,-1D0,0D0,2.5D2;      31P     16
100,0D0,0D0,0D0,1D1,0D0,-1D1,0D0;                                     33P     17
124,-1D0,0D0,0D0,-1.15D2,0D0,0D0,1D0,2.4453D3,0D0,1D0,0D0,2.5D2;      35P     18
100,0D0,0D0,0D0,1D1,0D0,-1D1,0D0;                                     37P     19
502,4,-1.05D2,8.453D2,2.5D2,-1.25D2,8.453D2,2.5D2,-1.05D2,            39P     20
2.4453D3,2.5D2,-1.25D2,2.4453D3,2.5D2;                                39P     21
504,6,21,39,1,39,2,25,39,2,39,1,33,39,3,39,4,37,39,4,39,3,27,39,      41P     22
1,39,3,29,39,2,39,4;                                                  41P     23
128,1,1,1,1,0,0,1,0,0,-3.145569151660D2,-3.145569151660D2,            43P     24
-2.904430848340D2,-2.904430848340D2,-2.620569151660D2,                43P     25
-2.620569151660D2,-2.379430848340D2,-2.379430848340D2,1D0,1D0,        43P     26
1D0,1D0,-1.270569151660D2,8.453D2,2.620569151660D2,                   43P     27
-1.029430848340D2,8.453D2,2.620569151660D2,-1.270569151660D2,         43P     28
8.453D2,2.379430848340D2,-1.029430848340D2,8.453D2,                   43P     29
2.379430848340D2,-3.145569151660D2,-2.904430848340D2,                 43P     30
-2.620569151660D2,-2.379430848340D2;                                  43P     31
508,2,0,41,1,1,0,0,41,2,1,0;                                          45P     32
510,43,1,0,45;                                                        47P     33
110,-1.15D2,8.453D2,2.5D2,-1.15D2,8.463D2,2.5D2;                      49P     34
110,-1.05D2,8.133D2,2.5D2,-1.05D2,2.4773D3,2.5D2;                     51P     35
120,49,51,-2.056915165971D-1,3.347284170187D0;                        53P     36
508,4,0,41,1,0,0,0,41,5,1,0,0,41,3,1,0,0,41,6,0,0;                    55P     37
510,53,1,0,55;                                                        57P     38
110,-1.15D2,8.453D2,2.5D2,-1.15D2,8.463D2,2.5D2;                      59P     39
110,-1.05D2,8.133D2,2.5D2,-1.05D2,2.4773D3,2.5D2;                     61P     40
120,59,61,2.935901136993D0,6.488876823777D0;                          63P     41
508,4,0,41,2,0,0,0,41,6,1,0,0,41,4,1,0,0,41,5,0,0;                    65P     42
510,63,1,0,65;                                                        67P     43
128,1,1,1,1,0,0,1,0,0,-3.145569151660D2,-3.145569151660D2,            69P     44
-2.904430848340D2,-2.904430848340D2,-2.620569151660D2,                69P     45
-2.620569151660D2,-2.379430848340D2,-2.379430848340D2,1D0,1D0,        69P     46
1D0,1D0,-1.270569151660D2,2.4453D3,2.620569151660D2,                  69P     47
-1.029430848340D2,2.4453D3,2.620569151660D2,-1.270569151660D2,        69P     48
2.4453D3,2.379430848340D2,-1.029430848340D2,2.4453D3,                 69P     49
2.379430848340D2,-3.145569151660D2,-2.904430848340D2,                 69P     50
-2.620569151660D2,-2.379430848340D2;                                  69P     51
508,2,0,41,3,0,0,0,41,4,0,0;                                          71P     52
510,69,1,0,71;                                                        73P     53
514,4,47,0,57,1,67,1,73,1;                                            75P     54
186,75,1,0;                                                           77P     55
124,1D0,0D0,0D0,1.4D2,0D0,0D0,1D0,8.453D2,0D0,-1D0,0D0,-2.8D2;        79P     56
100,0D0,0D0,0D0,1D1,0D0,-1D1,0D0;                                     81P     57
124,-1D0,0D0,0D0,1.4D2,0D0,0D0,1D0,8.453D2,0D0,1D0,0D0,-2.8D2;        83P     58
100,0D0,0D0,0D0,1D1,0D0,-1D1,0D0;                                     85P     59
110,1.5D2,8.453D2,-2.8D2,1.5D2,2.4453D3,-2.8D2;                       87P     60
110,1.3D2,8.453D2,-2.8D2,1.3D2,2.4453D3,-2.8D2;                       89P     61
124,1D0,0D0,0D0,1.4D2,0D0,0D0,1D0,2.4453D3,0D0,-1D0,0D0,-2.8D2;       91P     62
100,0D0,0D0,0D0,1D1,0D0,-1D1,0D0;                                     93P     63
124,-1D0,0D0,0D0,1.4D2,0D0,0D0,1D0,2.4453D3,0D0,1D0,0D0,-2.8D2;       95P     64
100,0D0,0D0,0D0,1D1,0D0,-1D1,0D0;                                     97P     65
502,4,1.5D2,8.453D2,-2.8D2,1.3D2,8.453D2,-2.8D2,1.5D2,2.4453D3,       99P     66
-2.8D2,1.3D2,2.4453D3,-2.8D2;                                         99P     67
504,6,81,99,1,99,2,85,99,2,99,1,93,99,3,99,4,97,99,4,99,3,87,99,     101P     68
1,99,3,89,99,2,99,4;                                                 101P     69
128,1,1,1,1,0,0,1,0,0,-5.955691516597D1,-5.955691516597D1,           103P     70
-3.544308483403D1,-3.544308483403D1,2.679430848340D2,                103P     71
2.679430848340D2,2.920569151660D2,2.920569151660D2,1D0,1D0,1D0,      103P     72
1D0,1.279430848340D2,8.453D2,-2.679430848340D2,1.520569151660D2,     103P     73
8.453D2,-2.679430848340D2,1.279430848340D2,8.453D2,                  103P     74
-2.920569151660D2,1.520569151660D2,8.453D2,-2.920569151660D2,        103P     75
-5.955691516597D1,-3.544308483403D1,2.679430848340D2,                103P     76
2.920569151660D2;                                                    103P     77
508,2,0,101,1,1,0,0,101,2,1,0;                                       105P     78
510,103,1,0,105;                                                     107P     79
110,1.4D2,8.453D2,-2.8D2,1.4D2,8.463D2,-2.8D2;                       109P     80
110,1.5D2,8.133D2,-2.8D2,1.5D2,2.4773D3,-2.8D2;                      111P     81
120,109,111,-2.056915165971D-1,3.347284170187D0;                     113P     82
508,4,0,101,1,0,0,0,101,5,1,0,0,101,3,1,0,0,101,6,0,0;               115P     83
510,113,1,0,115;                                                     117P     84
110,1.4D2,8.453D2,-2.8D2,1.4D2,8.463D2,-2.8D2;                       119P     85
110,1.5D2,8.133D2,-2.8D2,1.5D2,2.4773D3,-2.8D2;                      121P     86
120,119,121,2.935901136993D0,6.488876823777D0;                       123P     87
508,4,0,101,2,0,0,0,101,6,1,0,0,101,4,1,0,0,101,5,0,0;               125P     88
510,123,1,0,125;                                                     127P     89
128,1,1,1,1,0,0,1,0,0,-5.955691516597D1,-5.955691516597D1,           129P     90
-3.544308483403D1,-3.544308483403D1,2.679430848340D2,                129P     91
2.679430848340D2,2.920569151660D2,2.920569151660D2,1D0,1D0,1D0,      129P     92
1D0,1.279430848340D2,2.4453D3,-2.679430848340D2,                     129P     93
1.520569151660D2,2.4453D3,-2.679430848340D2,1.279430848340D2,        129P     94
2.4453D3,-2.920569151660D2,1.520569151660D2,2.4453D3,                129P     95
-2.920569151660D2,-5.955691516597D1,-3.544308483403D1,               129P     96
2.679430848340D2,2.920569151660D2;                                   129P     97
508,2,0,101,3,0,0,0,101,4,0,0;                                       131P     98
510,129,1,0,131;                                                     133P     99
514,4,107,0,117,1,127,1,133,1;                                       135P    100
186,135,1,0;                                                         137P    101
S      1G      4D    138P    101                                        T      1
