 PTC IGES file: prt0022m.igs                                            S      1
1H,,1H;,8HPRT0022M,12Hprt0022m.igs,                                     G      1
49HPro/ENGINEER by Parametric Technology Corporation,7H2004110,32,38,7, G      2
38,15,8HPRT0022M,1.,2,2HMM,32768,0.5,13H080428.080942,0.316639,3166.52, G      3
10Hliuxiaokun,7HUnknown,10,0,13H080428.080942;                          G      4
     314       1       1       1       0       0       0       001000200D      1
     314       0       4       1       0                   COLOR       1D      2
     314       2       1       1       0       0       0       001000200D      3
     314       0       1       1       0                   COLOR       2D      4
     314       3       1       1       0       0       0       001000200D      5
     314       0       1       1       0                   COLOR       3D      6
     314       4       1       1       0       0       0       001000200D      7
     314       0       1       1       0                   COLOR       4D      8
     314       5       1       1       0       0       0       001000200D      9
     314       0       8       1       0                   COLOR       5D     10
     314       6       1       1       0       0       0       001000200D     11
     314       0       8       1       0                   COLOR       6D     12
     314       7       1       1       0       0       0       001000200D     13
     314       0       5       1       0                   COLOR       7D     14
     314       8       1       1       0       0       0       001000200D     15
     314       0       8       1       0                   COLOR       8D     16
     124       9       1       1       0       0       0       001000000D     17
     124       0       0       4       0                   XFORM       1D     18
     100      13       1       1       0       0      17       001010000D     19
     100       0      -9       1       0                     ARC       1D     20
     110      14       1       1       0       0       0       001010000D     21
     110       0      -9       2       0                    LINE       1D     22
     126      16       1       1       0       0       0       001010000D     23
     126       0      -9      21       0                B_SPLINE       1D     24
     124      37       1       1       0       0       0       001000000D     25
     124       0       0       4       0                   XFORM       2D     26
     100      41       1       1       0       0      25       001010000D     27
     100       0      -9       1       0                     ARC       2D     28
     110      42       1       1       0       0       0       001010000D     29
     110       0      -9       2       0                    LINE       2D     30
     126      44       1       1       0       0       0       001010000D     31
     126       0      -9      21       0                B_SPLINE       2D     32
     124      65       1       1       0       0       0       001000000D     33
     124       0       0       2       0                   XFORM       3D     34
     104      67       1       1       0       0      33       001010000D     35
     104       0      -9       3       1                   CONIC       1D     36
     124      70       1       1       0       0       0       001000000D     37
     124       0       0       2       0                   XFORM       4D     38
     104      72       1       1       0       0      37       001010000D     39
     104       0      -9       3       1                   CONIC       2D     40
     124      75       1       1       0       0       0       001000000D     41
     124       0       0       4       0                   XFORM       5D     42
     100      79       1       1       0       0      41       001010000D     43
     100       0      -9       1       0                     ARC       3D     44
     110      80       1       1       0       0       0       001010000D     45
     110       0      -9       2       0                    LINE       3D     46
     124      82       1       1       0       0       0       001000000D     47
     124       0       0       4       0                   XFORM       6D     48
     100      86       1       1       0       0      47       001010000D     49
     100       0      -9       1       0                     ARC       4D     50
     110      87       1       1       0       0       0       001010000D     51
     110       0      -9       2       0                    LINE       4D     52
     502      89       1       1       0       0       0       001010000D     53
     502       0      -9       8       1                  VERTEX       1D     54
     504      97       1       1       0       0       0       000010001D     55
     504       0      -9       3       1                    EDGE       1D     56
     110     100       1       1       0       0       0       001010000D     57
     110       0      -9       2       0                    LINE       5D     58
     110     102       1       1       0       0       0       001010000D     59
     110       0      -9       2       0                    LINE       6D     60
     120     104       1       1       0       0       0       001010000D     61
     120       0      -9       1       0                    SREV       1D     62
     508     105       1       1       0       0       0       001010000D     63
     508       0       0       1       1                EDGELOOP       1D     64
     510     106       1       1       0       0       0       000010000D     65
     510       0      -9       1       1                    FACE       1D     66
     128     107       1       1       0       0       0       001010000D     67
     128       0      -9       9       0                  SPLSRF       1D     68
     508     116       1       1       0       0       0       001010000D     69
     508       0       0       1       1                EDGELOOP       2D     70
     508     117       1       1       0       0       0       001010000D     71
     508       0       0       1       1                EDGELOOP       3D     72
     510     118       1       1       0       0       0       000010000D     73
     510       0      -9       1       1                    FACE       2D     74
     110     119       1       1       0       0       0       001010000D     75
     110       0      -9       2       0                    LINE       7D     76
     110     121       1       1       0       0       0       001010000D     77
     110       0      -9       2       0                    LINE       8D     78
     120     123       1       1       0       0       0       001010000D     79
     120       0      -9       1       0                    SREV       2D     80
     508     124       1       1       0       0       0       001010000D     81
     508       0       0       1       1                EDGELOOP       4D     82
     510     125       1       1       0       0       0       000010000D     83
     510       0      -9       1       1                    FACE       3D     84
     128     126       1       1       0       0       0       001010000D     85
     128       0      -9       8       0                  SPLSRF       2D     86
     508     134       1       1       0       0       0       001010000D     87
     508       0       0       1       1                EDGELOOP       5D     88
     508     135       1       1       0       0       0       001010000D     89
     508       0       0       1       1                EDGELOOP       6D     90
     510     136       1       1       0       0       0       000010000D     91
     510       0      -9       1       1                    FACE       4D     92
     110     137       1       1       0       0       0       001010000D     93
     110       0      -9       2       0                    LINE       9D     94
     110     139       1       1       0       0       0       001010000D     95
     110       0      -9       2       0                    LINE      10D     96
     120     141       1       1       0       0       0       001010000D     97
     120       0      -9       1       0                    SREV       3D     98
     508     142       1       1       0       0       0       001010000D     99
     508       0       0       1       1                EDGELOOP       7D    100
     510     143       1       1       0       0       0       000010000D    101
     510       0      -9       1       1                    FACE       5D    102
     110     144       1       1       0       0       0       001010000D    103
     110       0      -9       2       0                    LINE      11D    104
     110     146       1       1       0       0       0       001010000D    105
     110       0      -9       2       0                    LINE      12D    106
     120     148       1       1       0       0       0       001010000D    107
     120       0      -9       1       0                    SREV       4D    108
     508     149       1       1       0       0       0       001010000D    109
     508       0       0       1       1                EDGELOOP       8D    110
     510     150       1       1       0       0       0       000010000D    111
     510       0      -9       1       1                    FACE       6D    112
     514     151       1       1       0       0       0       000000000D    113
     514       0      -9       1       1                   SHELL       1D    114
     186     152       1       1       0       0       0       000000000D    115
     186       0      -9       1       0                    MSBR       1D    116
314,1.1D0,1.2D0,1D2;                                                   1P      1
314,1.1D1,1.1D1,1.1D1;                                                 3P      2
314,3.92D1,1.2D0,1.2D0;                                                5P      3
314,4.1D1,0D0,2.2D1;                                                   7P      4
314,8.784D1,9.49D1,1D2;                                                9P      5
314,9.6D1,9.6D1,9.6D1;                                                11P      6
314,9.8D1,6.27D1,0D0;                                                 13P      7
314,1D2,1D2,9.49D1;                                                   15P      8
124,1.248801512428D-1,-1.068773027193D-1,9.863985958977D-1,           17P      9
-5.721360140410D2,7.494122532088D-1,-6.413762271315D-1,               17P     10
-1.643709524551D-1,7.310782904754D2,6.502201339285D-1,                17P     11
7.597458637163D-1,0D0,-7.32722D2;                                     17P     12
100,0D0,0D0,0D0,7.6D1,0D0,-7.6D1,0D0;                                 19P     13
110,-5.626451225466D2,7.880336217193D2,-6.833052698214D2,             21P     14
-2.345000547041D2,7.333513463641D2,-6.833037312915D2;                 21P     15
126,14,3,0,0,1,0,0D0,0D0,0D0,0D0,8.333333333333D-2,                   23P     16
1.666666666667D-1,2.5D-1,3.333333333333D-1,4.166666666667D-1,         23P     17
5D-1,5.833333333333D-1,6.666666666667D-1,7.5D-1,                      23P     18
8.333333333333D-1,9.166666666667D-1,1D0,1D0,1D0,1D0,1D0,1D0,1D0,      23P     19
1D0,1D0,1D0,1D0,1D0,1D0,1D0,1D0,1D0,1D0,1D0,1D0,                      23P     20
-2.345000547041D2,7.333513463641D2,-6.833037312915D2,                 23P     21
-2.345000547041D2,7.288836321173D2,-6.781544601053D2,                 23P     22
-2.344999746118D2,7.189282731057D2,-6.693645890386D2,                 23P     23
-2.345000068026D2,7.006402509789D2,-6.601700729994D2,                 23P     24
-2.344999981780D2,6.805855167851D2,-6.560484951915D2,                 23P     25
-2.345000004855D2,6.600987118619D2,-6.572166391961D2,                 23P     26
-2.344999998799D2,6.406684580921D2,-6.636110559485D2,                 23P     27
-2.344999999949D2,6.236520889100D2,-6.747319330134D2,                 23P     28
-2.345000001405D2,6.101986350055D2,-6.897566365762D2,                 23P     29
-2.344999994431D2,6.011657103845D2,-7.076205202699D2,                 23P     30
-2.345000020872D2,5.971075120100D2,-7.271259728602D2,                 23P     31
-2.344999922082D2,5.982388510849D2,-7.469727754841D2,                 23P     32
-2.345000290799D2,6.045786448853D2,-7.659712167005D2,                 23P     33
-2.344999373415D2,6.118158032275D2,-7.769954852747D2,                 23P     34
-2.344999373415D2,6.162772391968D2,-7.821375204223D2,0D0,1D0,         23P     35
0D0,0D0,1D0;                                                          23P     36
124,-1.248801512428D-1,1.068773027193D-1,9.863985958977D-1,           25P     37
-5.721360140410D2,-7.494122532088D-1,6.413762271315D-1,               25P     38
-1.643709524551D-1,7.310782904754D2,-6.502201339285D-1,               25P     39
-7.597458637163D-1,0D0,-7.32722D2;                                    25P     40
100,0D0,0D0,0D0,7.6D1,0D0,-7.6D1,0D0;                                 27P     41
110,-5.816269055355D2,6.741229592316D2,-7.821387301786D2,             29P     42
-2.344999373415D2,6.162772391968D2,-7.821375204223D2;                 29P     43
126,14,3,0,0,1,0,0D0,0D0,0D0,0D0,8.333333333333D-2,                   31P     44
1.666666666667D-1,2.5D-1,3.333333333333D-1,4.166666666667D-1,         31P     45
5D-1,5.833333333333D-1,6.666666666667D-1,7.5D-1,                      31P     46
8.333333333333D-1,9.166666666667D-1,1D0,1D0,1D0,1D0,1D0,1D0,1D0,      31P     47
1D0,1D0,1D0,1D0,1D0,1D0,1D0,1D0,1D0,1D0,1D0,1D0,                      31P     48
-2.344999373415D2,6.162772391968D2,-7.821375204223D2,                 31P     49
-2.344999373415D2,6.207454465950D2,-7.872873599910D2,                 31P     50
-2.345000290799D2,6.306926406695D2,-7.960722617916D2,                 31P     51
-2.344999922082D2,6.489844713764D2,-8.052722905473D2,                 31P     52
-2.345000020872D2,6.690397982478D2,-8.093951015280D2,                 31P     53
-2.344999994431D2,6.895287366707D2,-8.082282408326D2,                 31P     54
-2.345000001405D2,7.089609036527D2,-8.018338716292D2,                 31P     55
-2.344999999949D2,7.259789548679D2,-7.907122195251D2,                 31P     56
-2.344999998799D2,7.394334268685D2,-7.756860062862D2,                 31P     57
-2.345000004855D2,7.484665889500D2,-7.578202989303D2,                 31P     58
-2.344999981780D2,7.525238628520D2,-7.383126293592D2,                 31P     59
-2.345000068026D2,7.513914488572D2,-7.184650779429D2,                 31P     60
-2.344999746118D2,7.450467876847D2,-6.994620444502D2,                 31P     61
-2.345000547041D2,7.378133409754D2,-6.884464103029D2,                 31P     62
-2.345000547041D2,7.333513463641D2,-6.833037312915D2,0D0,1D0,         31P     63
0D0,0D0,1D0;                                                          31P     64
124,0D0,0D0,1D0,-2.345D2,-1D0,0D0,0D0,6.748154840989D2,0D0,-1D0,      33P     65
0D0,-7.32722D2;                                                       33P     66
104,9.729821899890D-1,0D0,1D0,0D0,0D0,-4.624D3,0D0,                   35P     67
-5.237509354491D1,-4.421496910714D1,5.237509354491D1,                 35P     68
4.421496910714D1;                                                     35P     69
124,0D0,0D0,1D0,-2.345D2,-1D0,0D0,0D0,6.748154840989D2,0D0,-1D0,      37P     70
0D0,-7.32722D2;                                                       37P     71
104,9.729821899890D-1,0D0,1D0,0D0,0D0,-4.624D3,0D0,                   39P     72
5.237509354491D1,4.421496910714D1,-5.237509354491D1,                  39P     73
-4.421496910714D1;                                                    39P     74
124,1.248801512428D-1,-1.068773027193D-1,9.863985958977D-1,           41P     75
-5.721360140410D2,7.494122532089D-1,-6.413762271315D-1,               41P     76
-1.643709524551D-1,7.310782904754D2,6.502201339285D-1,                41P     77
7.597458637163D-1,0D0,-7.32722D2;                                     41P     78
100,0D0,0D0,0D0,6.8D1,0D0,-6.8D1,-5.352378696505D-13;                 43P     79
110,-5.636441637565D2,7.820383236937D2,-6.885070308929D2,             45P     80
-2.345D2,7.271905776438D2,-6.885070308929D2;                          45P     81
124,-1.248801512428D-1,1.068773027193D-1,9.863985958977D-1,           47P     82
-5.721360140410D2,-7.494122532088D-1,6.413762271315D-1,               47P     83
-1.643709524551D-1,7.310782904754D2,-6.502201339285D-1,               47P     84
-7.597458637163D-1,0D0,-7.32722D2;                                    47P     85
100,0D0,0D0,0D0,6.8D1,0D0,-6.8D1,5.518925160625D-13;                  49P     86
110,-5.806278643255D2,6.801182572572D2,-7.769369691071D2,             51P     87
-2.345D2,6.224403905540D2,-7.769369691071D2;                          51P     88
502,8,-2.345000547041D2,7.333513463641D2,-6.833037312915D2,           53P     89
-2.344999373415D2,6.162772391968D2,-7.821375204223D2,-2.345D2,        53P     90
7.271905776438D2,-6.885070308929D2,-2.345D2,6.224403905540D2,         53P     91
-7.769369691071D2,-5.626451225466D2,7.880336217193D2,                 53P     92
-6.833052698214D2,-5.816269055355D2,6.741229592316D2,                 53P     93
-7.821387301786D2,-5.636441637565D2,7.820383236937D2,                 53P     94
-6.885070308929D2,-5.806278643255D2,6.801182572572D2,                 53P     95
-7.769369691071D2;                                                    53P     96
504,12,23,53,1,53,2,31,53,2,53,1,35,53,3,53,4,39,53,4,53,3,19,        55P     97
53,5,53,6,27,53,6,53,5,43,53,7,53,8,49,53,8,53,7,21,53,5,53,1,        55P     98
29,53,6,53,2,45,53,7,53,3,51,53,8,53,4;                               55P     99
110,-5.82D2,7.32722D2,-7.32722D2,-5.810136014041D2,                   57P    100
7.325576290475D2,-7.32722D2;                                          57P    101
110,-5.696478664788D2,7.892005411520D2,-6.833052698214D2,             59P    102
-2.055051820030D2,7.285207306517D2,-6.833052698214D2;                 59P    103
120,57,59,-6.283185307180D-2,3.204424506662D0;                        61P    104
508,4,0,55,5,0,0,0,55,9,1,0,0,55,1,1,0,0,55,10,0,0;                   63P    105
510,61,1,0,63;                                                        65P    106
128,1,1,1,1,0,0,1,0,0,-7.987596804184D1,-7.987596804184D1,            67P    107
7.987596804184D1,7.987596804184D1,-7.979981800546D1,                  67P    108
-7.979981800546D1,7.979981800546D1,7.979981800546D1,1D0,1D0,1D0,      67P    109
1D0,-5.536336726829D2,8.421117989137D2,-7.415199879791D2,             67P    110
-5.707075287158D2,7.396507048714D2,-6.201491153189D2,                 67P    111
-5.735644993663D2,7.225058760795D2,-8.452948846811D2,                 67P    112
-5.906383553991D2,6.200447820372D2,-7.239240120209D2,                 67P    113
-7.987596804184D1,7.987596804184D1,-7.979981800546D1,                 67P    114
7.979981800546D1;                                                     67P    115
508,2,0,55,5,1,0,0,55,6,1,0;                                          69P    116
508,2,0,55,7,0,0,0,55,8,0,0;                                          71P    117
510,67,2,0,69,71;                                                     73P    118
110,-5.82D2,7.32722D2,-7.32722D2,-5.810136014041D2,                   75P    119
7.325576290475D2,-7.32722D2;                                          75P    120
110,-5.695876606573D2,7.891905086071D2,-6.833052698214D2,             77P    121
-2.085756789004D2,7.290323904428D2,-6.833052698214D2;                 77P    122
120,75,77,3.078760800518D0,6.346017160251D0;                          79P    123
508,4,0,55,6,0,0,0,55,10,1,0,0,55,2,1,0,0,55,9,0,0;                   81P    124
510,79,1,0,81;                                                        83P    125
128,1,1,1,1,0,0,1,0,0,1.926831097896D3,1.926831097896D3,              85P    126
2.086539509620D3,2.086539509620D3,2.593912256989D3,                   85P    127
2.593912256989D3,2.755718602190D3,2.755718602190D3,1D0,1D0,1D0,       85P    128
1D0,-2.345D2,5.939122569889D2,-6.528678476553D2,-2.345D2,             85P    129
5.939122569889D2,-8.125762593798D2,-2.345D2,7.557186021898D2,         85P    130
-6.528678476553D2,-2.345D2,7.557186021898D2,-8.125762593798D2,        85P    131
1.926831097896D3,2.086539509620D3,2.593912256989D3,                   85P    132
2.755718602190D3;                                                     85P    133
508,2,0,55,1,0,0,0,55,2,0,0;                                          87P    134
508,2,0,55,3,1,0,0,55,4,1,0;                                          89P    135
510,85,2,0,87,89;                                                     91P    136
110,-5.82D2,7.32722D2,-7.32722D2,-5.810136014041D2,                   93P    137
7.325576290475D2,-7.32722D2;                                          93P    138
110,-5.706204344452D2,7.832008316924D2,-6.885070308929D2,             95P    139
-2.078543586326D2,7.227504157574D2,-6.885070308929D2;                 95P    140
120,93,95,-6.283185307180D-2,3.204424506662D0;                        97P    141
508,4,0,55,7,1,0,0,55,12,1,0,0,55,3,0,0,0,55,11,0,0;                  99P    142
510,97,1,0,99;                                                       101P    143
110,-5.82D2,7.32722D2,-7.32722D2,-5.810136014041D2,                  103P    144
7.325576290475D2,-7.32722D2;                                         103P    145
110,-5.705667210430D2,7.831918810277D2,-6.885070308929D2,            105P    146
-2.105937421445D2,7.232068996564D2,-6.885070308929D2;                105P    147
120,103,105,3.078760800518D0,6.346017160251D0;                       107P    148
508,4,0,55,8,1,0,0,55,11,1,0,0,55,4,0,0,0,55,12,0,0;                 109P    149
510,107,1,0,109;                                                     111P    150
514,6,65,1,73,0,83,1,91,1,101,0,111,0;                               113P    151
186,113,1,0;                                                         115P    152
S      1G      4D    116P    152                                        T      1
