 PTC IGES file: mice36-002.igs                                          S      1
1H,,1H;,10HMICE36-002,14Hmice36-002.igs,                                G      1
49HPro/ENGINEER by Parametric Technology Corporation,7H2004110,32,38,7, G      2
38,15,10HMICE36-002,1.,2,2HMM,32768,0.5,13H080428.080959,0.00462258,    G      3
46.2277,10Hliuxiaokun,7HUnknown,10,0,13H080428.080959;                  G      4
     314       1       1       1       0       0       0       001000200D      1
     314       0       4       1       0                   COLOR       1D      2
     314       2       1       1       0       0       0       001000200D      3
     314       0       1       1       0                   COLOR       2D      4
     314       3       1       1       0       0       0       001000200D      5
     314       0       1       1       0                   COLOR       3D      6
     314       4       1       1       0       0       0       001000200D      7
     314       0       1       1       0                   COLOR       4D      8
     314       5       1       1       0       0       0       001000200D      9
     314       0       8       1       0                   COLOR       5D     10
     314       6       1       1       0       0       0       001000200D     11
     314       0       8       1       0                   COLOR       6D     12
     314       7       1       1       0       0       0       001000200D     13
     314       0       8       1       0                   COLOR       7D     14
     314       8       1       1       0       0       0       001000200D     15
     314       0       5       1       0                   COLOR       8D     16
     314       9       1       1       0       0       0       001000200D     17
     314       0       8       1       0                   COLOR       9D     18
     124      10       1       1       0       0       0       001000000D     19
     124       0       0       1       0                   XFORM       1D     20
     100      11       1       1       0       0      19       001010000D     21
     100       0      -9       1       0                     ARC       1D     22
     124      12       1       1       0       0       0       001000000D     23
     124       0       0       1       0                   XFORM       2D     24
     100      13       1       1       0       0      23       001010000D     25
     100       0      -9       1       0                     ARC       2D     26
     124      14       1       1       0       0       0       001000000D     27
     124       0       0       1       0                   XFORM       3D     28
     100      15       1       1       0       0      27       001010000D     29
     100       0      -9       1       0                     ARC       3D     30
     110      16       1       1       0       0       0       001010000D     31
     110       0      -9       1       0                    LINE       1D     32
     124      17       1       1       0       0       0       001000000D     33
     124       0       0       1       0                   XFORM       4D     34
     100      18       1       1       0       0      33       001010000D     35
     100       0      -9       1       0                     ARC       4D     36
     124      19       1       1       0       0       0       001000000D     37
     124       0       0       1       0                   XFORM       5D     38
     100      20       1       1       0       0      37       001010000D     39
     100       0      -9       1       0                     ARC       5D     40
     110      21       1       1       0       0       0       001010000D     41
     110       0      -9       1       0                    LINE       2D     42
     110      22       1       1       0       0       0       001010000D     43
     110       0      -9       1       0                    LINE       3D     44
     124      23       1       1       0       0       0       001000000D     45
     124       0       0       1       0                   XFORM       6D     46
     100      24       1       1       0       0      45       001010000D     47
     100       0      -9       1       0                     ARC       6D     48
     124      25       1       1       0       0       0       001000000D     49
     124       0       0       1       0                   XFORM       7D     50
     100      26       1       1       0       0      49       001010000D     51
     100       0      -9       1       0                     ARC       7D     52
     124      27       1       1       0       0       0       001000000D     53
     124       0       0       1       0                   XFORM       8D     54
     100      28       1       1       0       0      53       001010000D     55
     100       0      -9       1       0                     ARC       8D     56
     110      29       1       1       0       0       0       001010000D     57
     110       0      -9       1       0                    LINE       4D     58
     502      30       1       1       0       0       0       001010000D     59
     502       0      -9       2       1                  VERTEX       1D     60
     504      32       1       1       0       0       0       001010001D     61
     504       0      -9       3       1                    EDGE       1D     62
     128      35       1       1       0       0       0       001010000D     63
     128       0      -9       4       0                  SPLSRF       1D     64
     508      39       1       1       0       0       0       001010000D     65
     508       0       0       1       1                EDGELOOP       1D     66
     510      40       1       1       0       0       0       001010000D     67
     510       0      -9       1       1                    FACE       1D     68
     110      41       1       1       0       0       0       001010000D     69
     110       0      -9       1       0                    LINE       5D     70
     110      42       1       1       0       0       0       001010000D     71
     110       0      -9       1       0                    LINE       6D     72
     120      43       1       1       0       0       0       001010000D     73
     120       0      -9       1       0                    SREV       1D     74
     508      44       1       1       0       0       0       001010000D     75
     508       0       0       1       1                EDGELOOP       2D     76
     510      45       1       1       0       0       0       001010000D     77
     510       0      -9       1       1                    FACE       2D     78
     128      46       1       1       0       0       0       001010000D     79
     128       0      -9       4       0                  SPLSRF       2D     80
     508      50       1       1       0       0       0       001010000D     81
     508       0       0       1       1                EDGELOOP       3D     82
     508      51       1       1       0       0       0       001010000D     83
     508       0       0       1       1                EDGELOOP       4D     84
     510      52       1       1       0       0       0       001010000D     85
     510       0      -9       1       1                    FACE       3D     86
     110      53       1       1       0       0       0       001010000D     87
     110       0      -9       1       0                    LINE       7D     88
     110      54       1       1       0       0       0       001010000D     89
     110       0      -9       1       0                    LINE       8D     90
     120      55       1       1       0       0       0       001010000D     91
     120       0      -9       1       0                    SREV       2D     92
     508      56       1       1       0       0       0       001010000D     93
     508       0       0       1       1                EDGELOOP       5D     94
     510      57       1       1       0       0       0       001010000D     95
     510       0      -9       1       1                    FACE       4D     96
     110      58       1       1       0       0       0       001010000D     97
     110       0      -9       1       0                    LINE       9D     98
     110      59       1       1       0       0       0       001010000D     99
     110       0      -9       1       0                    LINE      10D    100
     120      60       1       1       0       0       0       001010000D    101
     120       0      -9       1       0                    SREV       3D    102
     508      61       1       1       0       0       0       001010000D    103
     508       0       0       1       1                EDGELOOP       6D    104
     510      62       1       1       0       0       0       001010000D    105
     510       0      -9       1       1                    FACE       5D    106
     128      63       1       1       0       0       0       001010000D    107
     128       0      -9       4       0                  SPLSRF       3D    108
     508      67       1       1       0       0       0       001010000D    109
     508       0       0       1       1                EDGELOOP       7D    110
     510      68       1       1       0       0       0       001010000D    111
     510       0      -9       1       1                    FACE       6D    112
     110      69       1       1       0       0       0       001010000D    113
     110       0      -9       1       0                    LINE      11D    114
     110      70       1       1       0       0       0       001010000D    115
     110       0      -9       1       0                    LINE      12D    116
     120      71       1       1       0       0       0       001010000D    117
     120       0      -9       1       0                    SREV       4D    118
     508      72       1       1       0       0       0       001010000D    119
     508       0       0       1       1                EDGELOOP       8D    120
     510      73       1       1       0       0       0       001010000D    121
     510       0      -9       1       1                    FACE       7D    122
     514      74       1       1       0       0       0       001000000D    123
     514       0      -9       1       1                   SHELL       1D    124
     186      75       1       1       0       0       0       000000000D    125
     186       0      -9       1       0                    MSBR       1D    126
314,1.1D0,1.2D0,1D2;                                                   1P      1
314,1.1D1,1.1D1,1.1D1;                                                 3P      2
314,3.92D1,1.2D0,1.2D0;                                                5P      3
314,4.1D1,0D0,2.2D1;                                                   7P      4
314,8.59D1,9.41D1,8D1;                                                 9P      5
314,8.784D1,9.49D1,1D2;                                               11P      6
314,9.6D1,9.6D1,9.6D1;                                                13P      7
314,9.8D1,6.27D1,0D0;                                                 15P      8
314,1D2,1D2,9.49D1;                                                   17P      9
124,1D0,0D0,0D0,0D0,0D0,0D0,1D0,0D0,0D0,-1D0,0D0,0D0;                 19P     10
100,0D0,0D0,0D0,4D0,0D0,-4D0,0D0;                                     21P     11
124,-1D0,0D0,0D0,0D0,0D0,0D0,1D0,0D0,0D0,1D0,0D0,0D0;                 23P     12
100,0D0,0D0,0D0,4D0,0D0,-4D0,0D0;                                     25P     13
124,1D0,0D0,0D0,0D0,0D0,0D0,1D0,4D1,0D0,-1D0,0D0,0D0;                 27P     14
100,0D0,0D0,0D0,4D0,0D0,-4D0,0D0;                                     29P     15
110,4D0,0D0,0D0,4D0,4D1,0D0;                                          31P     16
124,1D0,0D0,0D0,0D0,0D0,0D0,1D0,4D1,0D0,-1D0,0D0,0D0;                 33P     17
100,0D0,0D0,0D0,6D0,0D0,-6D0,0D0;                                     35P     18
124,-1D0,0D0,0D0,0D0,0D0,0D0,1D0,4D1,0D0,1D0,0D0,0D0;                 37P     19
100,0D0,0D0,0D0,6D0,0D0,-6D0,0D0;                                     39P     20
110,6D0,4D1,0D0,6D0,4.3D1,0D0;                                        41P     21
110,-6D0,4D1,0D0,-6D0,4.3D1,0D0;                                      43P     22
124,1D0,0D0,0D0,0D0,0D0,0D0,1D0,4.3D1,0D0,-1D0,0D0,0D0;               45P     23
100,0D0,0D0,0D0,6D0,0D0,-6D0,0D0;                                     47P     24
124,-1D0,0D0,0D0,0D0,0D0,0D0,1D0,4.3D1,0D0,1D0,0D0,0D0;               49P     25
100,0D0,0D0,0D0,6D0,0D0,-6D0,0D0;                                     51P     26
124,-1D0,0D0,0D0,0D0,0D0,0D0,1D0,4D1,0D0,1D0,0D0,0D0;                 53P     27
100,0D0,0D0,0D0,4D0,0D0,-4D0,0D0;                                     55P     28
110,-4D0,0D0,0D0,-4D0,4D1,0D0;                                        57P     29
502,8,4D0,0D0,0D0,-4D0,0D0,0D0,6D0,4D1,0D0,-6D0,4D1,0D0,6D0,          59P     30
4.3D1,0D0,-6D0,4.3D1,0D0,4D0,4D1,0D0,-4D0,4D1,0D0;                    59P     31
504,12,21,59,1,59,2,25,59,2,59,1,35,59,3,59,4,39,59,4,59,3,47,        61P     32
59,5,59,6,51,59,6,59,5,41,59,3,59,5,43,59,4,59,6,29,59,7,59,8,        61P     33
55,59,8,59,7,31,59,1,59,7,57,59,2,59,8;                               61P     34
128,1,1,1,1,0,0,1,0,0,-4.16D0,-4.16D0,4.16D0,4.16D0,-4.16D0,          63P     35
-4.16D0,4.16D0,4.16D0,1D0,1D0,1D0,1D0,-4.16D0,0D0,4.16D0,4.16D0,      63P     36
0D0,4.16D0,-4.16D0,0D0,-4.16D0,4.16D0,0D0,-4.16D0,-4.16D0,            63P     37
4.16D0,-4.16D0,4.16D0;                                                63P     38
508,2,0,61,1,1,0,0,61,2,1,0;                                          65P     39
510,63,1,0,65;                                                        67P     40
110,0D0,0D0,0D0,0D0,1D0,0D0;                                          69P     41
110,4D0,-8D-1,0D0,4D0,4.08D1,0D0;                                     71P     42
120,69,71,-6.283185307180D-2,3.204424506662D0;                        73P     43
508,4,0,61,9,1,0,0,61,12,0,0,0,61,1,0,0,0,61,11,1,0;                  75P     44
510,73,1,0,75;                                                        77P     45
128,1,1,1,1,0,0,1,0,0,-6.24D0,-6.24D0,6.24D0,6.24D0,-6.24D0,          79P     46
-6.24D0,6.24D0,6.24D0,1D0,1D0,1D0,1D0,-6.24D0,4D1,6.24D0,6.24D0,      79P     47
4D1,6.24D0,-6.24D0,4D1,-6.24D0,6.24D0,4D1,-6.24D0,-6.24D0,            79P     48
6.24D0,-6.24D0,6.24D0;                                                79P     49
508,2,0,61,3,1,0,0,61,4,1,0;                                          81P     50
508,2,0,61,9,0,0,0,61,10,0,0;                                         83P     51
510,79,2,0,81,83;                                                     85P     52
110,0D0,4D1,0D0,0D0,4.1D1,0D0;                                        87P     53
110,6D0,3.994D1,0D0,6D0,4.306D1,0D0;                                  89P     54
120,87,89,-6.283185307180D-2,3.204424506662D0;                        91P     55
508,4,0,61,3,0,0,0,61,7,1,0,0,61,5,1,0,0,61,8,0,0;                    93P     56
510,91,1,0,93;                                                        95P     57
110,0D0,4D1,0D0,0D0,4.1D1,0D0;                                        97P     58
110,6D0,3.994D1,0D0,6D0,4.306D1,0D0;                                  99P     59
120,97,99,3.078760800518D0,6.346017160251D0;                         101P     60
508,4,0,61,4,0,0,0,61,8,1,0,0,61,6,1,0,0,61,7,0,0;                   103P     61
510,101,1,0,103;                                                     105P     62
128,1,1,1,1,0,0,1,0,0,-6.24D0,-6.24D0,6.24D0,6.24D0,-6.24D0,         107P     63
-6.24D0,6.24D0,6.24D0,1D0,1D0,1D0,1D0,-6.24D0,4.3D1,6.24D0,          107P     64
6.24D0,4.3D1,6.24D0,-6.24D0,4.3D1,-6.24D0,6.24D0,4.3D1,-6.24D0,      107P     65
-6.24D0,6.24D0,-6.24D0,6.24D0;                                       107P     66
508,2,0,61,5,0,0,0,61,6,0,0;                                         109P     67
510,107,1,0,109;                                                     111P     68
110,0D0,0D0,0D0,0D0,1D0,0D0;                                         113P     69
110,4D0,-8D-1,0D0,4D0,4.08D1,0D0;                                    115P     70
120,113,115,3.078760800518D0,6.346017160251D0;                       117P     71
508,4,0,61,10,1,0,0,61,11,0,0,0,61,2,0,0,0,61,12,1,0;                119P     72
510,117,1,0,119;                                                     121P     73
514,7,67,0,77,1,85,0,95,1,105,1,111,1,121,1;                         123P     74
186,123,1,0;                                                         125P     75
S      1G      4D    126P     75                                        T      1
