 PTC IGES file: mice36-001.igs                                          S      1
1H,,1H;,10HMICE36-001,14Hmice36-001.igs,                                G      1
49HPro/ENGINEER by Parametric Technology Corporation,7H2004110,32,38,7, G      2
38,15,10HMICE36-001,1.,2,2HMM,32768,0.5,13H080428.080959,0.0297903,     G      3
297.915,10Hliuxiaokun,7HUnknown,10,0,13H080428.080959;                  G      4
     314       1       1       1       0       0       0       001000200D      1
     314       0       4       1       0                   COLOR       1D      2
     314       2       1       1       0       0       0       001000200D      3
     314       0       1       1       0                   COLOR       2D      4
     314       3       1       1       0       0       0       001000200D      5
     314       0       1       1       0                   COLOR       3D      6
     314       4       1       1       0       0       0       001000200D      7
     314       0       1       1       0                   COLOR       4D      8
     314       5       1       1       0       0       0       001000200D      9
     314       0       8       1       0                   COLOR       5D     10
     314       6       1       1       0       0       0       001000200D     11
     314       0       8       1       0                   COLOR       6D     12
     314       7       1       1       0       0       0       001000200D     13
     314       0       8       1       0                   COLOR       7D     14
     314       8       1       1       0       0       0       001000200D     15
     314       0       5       1       0                   COLOR       8D     16
     314       9       1       1       0       0       0       001000200D     17
     314       0       8       1       0                   COLOR       9D     18
     124      10       1       1       0       0       0       001000000D     19
     124       0       0       2       0                   XFORM       1D     20
     100      12       1       1       0       0      19       001010000D     21
     100       0     -11       1       0                     ARC       1D     22
     124      13       1       1       0       0       0       001000000D     23
     124       0       0       2       0                   XFORM       2D     24
     100      15       1       1       0       0      23       001010000D     25
     100       0     -11       1       0                     ARC       2D     26
     110      16       1       1       0       0       0       001010000D     27
     110       0     -11       2       0                    LINE       1D     28
     110      18       1       1       0       0       0       001010000D     29
     110       0     -11       2       0                    LINE       2D     30
     124      20       1       1       0       0       0       001000000D     31
     124       0       0       2       0                   XFORM       3D     32
     100      22       1       1       0       0      31       001010000D     33
     100       0     -11       1       0                     ARC       3D     34
     110      23       1       1       0       0       0       001010000D     35
     110       0     -11       2       0                    LINE       3D     36
     124      25       1       1       0       0       0       001000000D     37
     124       0       0       2       0                   XFORM       4D     38
     100      27       1       1       0       0      37       001010000D     39
     100       0     -11       1       0                     ARC       4D     40
     110      28       1       1       0       0       0       001010000D     41
     110       0     -11       2       0                    LINE       4D     42
     124      30       1       1       0       0       0       001000000D     43
     124       0       0       1       0                   XFORM       5D     44
     100      31       1       1       0       0      43       001010000D     45
     100       0     -11       1       0                     ARC       5D     46
     124      32       1       1       0       0       0       001000000D     47
     124       0       0       1       0                   XFORM       6D     48
     100      33       1       1       0       0      47       001010000D     49
     100       0     -11       1       0                     ARC       6D     50
     502      34       1       1       0       0       0       001010000D     51
     502       0     -11       3       1                  VERTEX       1D     52
     504      37       1       1       0       0       0       000010001D     53
     504       0     -11       3       1                    EDGE       1D     54
     128      40       1       1       0       0       0       001010000D     55
     128       0     -11       7       0                  SPLSRF       1D     56
     508      47       1       1       0       0       0       001010000D     57
     508       0       0       1       1                EDGELOOP       1D     58
     510      48       1       1       0       0       0       000010000D     59
     510       0     -11       1       1                    FACE       1D     60
     110      49       1       1       0       0       0       001010000D     61
     110       0     -11       1       0                    LINE       5D     62
     110      50       1       1       0       0       0       001010000D     63
     110       0     -11       2       0                    LINE       6D     64
     120      52       1       1       0       0       0       001010000D     65
     120       0     -11       1       0                    SREV       1D     66
     508      53       1       1       0       0       0       001010000D     67
     508       0       0       1       1                EDGELOOP       2D     68
     510      54       1       1       0       0       0       000010000D     69
     510       0     -11       1       1                    FACE       2D     70
     110      55       1       1       0       0       0       001010000D     71
     110       0     -11       1       0                    LINE       7D     72
     110      56       1       1       0       0       0       001010000D     73
     110       0     -11       2       0                    LINE       8D     74
     120      58       1       1       0       0       0       001010000D     75
     120       0     -11       1       0                    SREV       2D     76
     508      59       1       1       0       0       0       001010000D     77
     508       0       0       1       1                EDGELOOP       3D     78
     510      60       1       1       0       0       0       000010000D     79
     510       0     -11       1       1                    FACE       3D     80
     110      61       1       1       0       0       0       001010000D     81
     110       0     -11       1       0                    LINE       9D     82
     110      62       1       1       0       0       0       001010000D     83
     110       0     -11       1       0                    LINE      10D     84
     120      63       1       1       0       0       0       001010000D     85
     120       0     -11       1       0                    SREV       3D     86
     508      64       1       1       0       0       0       001010000D     87
     508       0       0       1       1                EDGELOOP       4D     88
     510      65       1       1       0       0       0       000010000D     89
     510       0     -11       1       1                    FACE       4D     90
     110      66       1       1       0       0       0       001010000D     91
     110       0     -11       1       0                    LINE      11D     92
     110      67       1       1       0       0       0       001010000D     93
     110       0     -11       1       0                    LINE      12D     94
     120      68       1       1       0       0       0       001010000D     95
     120       0     -11       1       0                    SREV       4D     96
     508      69       1       1       0       0       0       001010000D     97
     508       0       0       1       1                EDGELOOP       5D     98
     510      70       1       1       0       0       0       000010000D     99
     510       0     -11       1       1                    FACE       5D    100
     128      71       1       1       0       0       0       001010000D    101
     128       0     -11       8       0                  SPLSRF       2D    102
     508      79       1       1       0       0       0       001010000D    103
     508       0       0       1       1                EDGELOOP       6D    104
     510      80       1       1       0       0       0       000010000D    105
     510       0     -11       1       1                    FACE       6D    106
     514      81       1       1       0       0       0       000000000D    107
     514       0     -11       1       1                   SHELL       1D    108
     186      82       1       1       0       0       0       000000000D    109
     186       0     -11       1       0                    MSBR       1D    110
314,1.1D0,1.2D0,1D2;                                                   1P      1
314,1.1D1,1.1D1,1.1D1;                                                 3P      2
314,3.92D1,1.2D0,1.2D0;                                                5P      3
314,4.1D1,0D0,2.2D1;                                                   7P      4
314,8.784D1,9.49D1,1D2;                                                9P      5
314,9.01961D1,9.01961D1,1D2;                                          11P      6
314,9.6D1,9.6D1,9.6D1;                                                13P      7
314,9.8D1,6.27D1,0D0;                                                 15P      8
314,1D2,1D2,9.49D1;                                                   17P      9
124,-1D0,0D0,0D0,0D0,0D0,0D0,-1D0,-2.791189544249D-5,0D0,-1D0,        19P     10
0D0,0D0;                                                              19P     11
100,0D0,0D0,0D0,2.999964652108D0,0D0,-2.999964652108D0,0D0;           21P     12
124,1D0,0D0,0D0,0D0,0D0,0D0,-1D0,-2.791189544338D-5,0D0,1D0,0D0,      23P     13
0D0;                                                                  23P     14
100,0D0,0D0,0D0,2.999964652108D0,0D0,-2.999964652108D0,0D0;           25P     15
110,-2.999997510581D0,2.467963752473D-6,3.289840979017D-8,            27P     16
-3.999997510581D0,1.000002467964D0,3.289840947342D-8;                 27P     17
110,2.999997510581D0,2.467963751881D-6,-3.289840902445D-8,            29P     18
3.999997510581D0,1.000002467964D0,-3.289840929545D-8;                 29P     19
124,1D0,0D0,0D0,0D0,0D0,0D0,-1D0,1.000084415780D0,0D0,1D0,0D0,        31P     20
0D0;                                                                  31P     21
100,0D0,0D0,0D0,4D0,0D0,-4D0,0D0;                                     33P     22
110,-3.999997510581D0,1.000002467964D0,3.289840947342D-8,-4D0,        35P     23
2.977D2,0D0;                                                          35P     24
124,-1D0,0D0,0D0,0D0,0D0,0D0,-1D0,1.000084415780D0,0D0,-1D0,0D0,      37P     25
0D0;                                                                  37P     26
100,0D0,0D0,0D0,4D0,0D0,-4D0,0D0;                                     39P     27
110,3.999997510581D0,1.000002467964D0,-3.289840929545D-8,4D0,         41P     28
2.977D2,0D0;                                                          41P     29
124,1D0,0D0,0D0,0D0,0D0,0D0,1D0,2.977D2,0D0,-1D0,0D0,0D0;             43P     30
100,0D0,0D0,0D0,4D0,0D0,-4D0,0D0;                                     45P     31
124,-1D0,0D0,0D0,0D0,0D0,0D0,1D0,2.977D2,0D0,1D0,0D0,0D0;             47P     32
100,0D0,0D0,0D0,4D0,0D0,-4D0,0D0;                                     49P     33
502,6,4D0,2.977D2,0D0,-4D0,2.977D2,0D0,-2.999964652108D0,             51P     34
-2.791189544249D-5,0D0,2.999964652108D0,-2.791189544249D-5,0D0,       51P     35
-4D0,1.000084415780D0,0D0,4D0,1.000084415780D0,0D0;                   51P     36
504,10,45,51,1,51,2,49,51,2,51,1,21,51,3,51,4,39,51,5,51,6,25,        53P     37
51,4,51,3,33,51,6,51,5,41,51,6,51,1,35,51,5,51,2,29,51,4,51,6,        53P     38
27,51,3,51,5;                                                         53P     39
128,1,1,1,1,0,0,1,0,0,-3.357498129620D0,-3.357498129620D0,            55P     40
3.357498129620D0,3.357498129620D0,-3.366089562602D0,                  55P     41
-3.366089562602D0,3.366089562602D0,3.366089562602D0,1D0,1D0,1D0,      55P     42
1D0,-3.357498129620D0,0D0,3.366089562602D0,3.357498129620D0,0D0,      55P     43
3.366089562602D0,-3.357498129620D0,0D0,-3.366089562602D0,             55P     44
3.357498129620D0,0D0,-3.366089562602D0,-3.357498129620D0,             55P     45
3.357498129620D0,-3.366089562602D0,3.366089562602D0;                  55P     46
508,2,0,53,3,0,0,0,53,5,0,0;                                          57P     47
510,55,1,0,57;                                                        59P     48
110,0D0,-3D0,0D0,0D0,-2D0,0D0;                                        61P     49
110,0D0,-2.529682489053D-1,-2.747024942059D0,0D0,                     63P     50
1.253037939842D0,-4.253027397886D0;                                   63P     51
120,61,63,-1.689969718649D0,1.689969751547D0;                         65P     52
508,4,0,53,3,1,0,0,53,9,1,0,0,53,4,0,0,0,53,10,0,0;                   67P     53
510,65,1,0,67;                                                        69P     54
110,0D0,-3D0,0D0,0D0,-2D0,0D0;                                        71P     55
110,0D0,-2.529682489053D-1,-2.747024942059D0,0D0,                     73P     56
1.253037939842D0,-4.253027397886D0;                                   73P     57
120,71,73,-4.831562372239D0,-1.451622902043D0;                        75P     58
508,4,0,53,5,1,0,0,53,10,1,0,0,53,6,0,0,0,53,9,0,0;                   77P     59
510,75,1,0,77;                                                        79P     60
110,0D0,0D0,0D0,0D0,1D0,0D0;                                          81P     61
110,4D0,-4.934268787048D0,0D0,4D0,3.036340052703D2,0D0;               83P     62
120,81,83,3.052218121185D0,6.372559839584D0;                          85P     63
508,4,0,53,6,1,0,0,53,8,1,0,0,53,2,1,0,0,53,7,0,0;                    87P     64
510,85,1,0,87;                                                        89P     65
110,0D0,0D0,0D0,0D0,1D0,0D0;                                          91P     66
110,4D0,-4.934268787048D0,0D0,4D0,3.036340052703D2,0D0;               93P     67
120,91,93,-8.937453240488D-2,3.230967185995D0;                        95P     68
508,4,0,53,4,1,0,0,53,7,1,0,0,53,1,1,0,0,53,8,0,0;                    97P     69
510,95,1,0,97;                                                        99P     70
128,1,1,1,1,0,0,1,0,0,-4.357498129620D0,-4.357498129620D0,           101P     71
4.357498129620D0,4.357498129620D0,-4.357498129620D0,                 101P     72
-4.357498129620D0,4.357498129620D0,4.357498129620D0,1D0,1D0,1D0,     101P     73
1D0,-4.357498129620D0,2.977D2,4.357498129620D0,4.357498129620D0,     101P     74
2.977D2,4.357498129620D0,-4.357498129620D0,2.977D2,                  101P     75
-4.357498129620D0,4.357498129620D0,2.977D2,-4.357498129620D0,        101P     76
-4.357498129620D0,4.357498129620D0,-4.357498129620D0,                101P     77
4.357498129620D0;                                                    101P     78
508,2,0,53,1,0,0,0,53,2,0,0;                                         103P     79
510,101,1,0,103;                                                     105P     80
514,6,59,0,69,1,79,1,89,1,99,1,105,1;                                107P     81
186,107,1,0;                                                         109P     82
S      1G      4D    110P     82                                        T      1
