 PTC IGES file: mice-0001.igs                                           S      1
1H,,1H;,9HMICE-0001,13Hmice-0001.igs,                                   G      1
49HPro/ENGINEER by Parametric Technology Corporation,7H2004110,32,38,7, G      2
38,15,9HMICE-0001,1.,2,2HMM,32768,0.5,13H080428.081003,0.0122775,       G      3
 122.78,10Hliuxiaokun,7HUnknown,10,0,13H080428.081003;                  G      4
     314       1       1       1       0       0       0       001000200D      1
     314       0       4       1       0                   COLOR       1D      2
     314       2       1       1       0       0       0       001000200D      3
     314       0       1       1       0                   COLOR       2D      4
     314       3       1       1       0       0       0       001000200D      5
     314       0       1       1       0                   COLOR       3D      6
     314       4       1       1       0       0       0       001000200D      7
     314       0       1       1       0                   COLOR       4D      8
     314       5       1       1       0       0       0       001000200D      9
     314       0       8       1       0                   COLOR       5D     10
     314       6       1       1       0       0       0       001000200D     11
     314       0       8       1       0                   COLOR       6D     12
     314       7       1       1       0       0       0       001000200D     13
     314       0       5       1       0                   COLOR       7D     14
     314       8       1       1       0       0       0       001000200D     15
     314       0       8       1       0                   COLOR       8D     16
     124       9       1       1       0       0       0       001000000D     17
     124       0       0       1       0                   XFORM       1D     18
     100      10       1       1       0       0      17       001010000D     19
     100       0       0       1       0                     ARC       1D     20
     124      11       1       1       0       0       0       001000000D     21
     124       0       0       1       0                   XFORM       2D     22
     100      12       1       1       0       0      21       001010000D     23
     100       0       0       1       0                     ARC       2D     24
     110      13       1       1       0       0       0       001010000D     25
     110       0       0       1       0                    LINE       1D     26
     110      14       1       1       0       0       0       001010000D     27
     110       0       0       1       0                    LINE       2D     28
     124      15       1       1       0       0       0       001000000D     29
     124       0       0       1       0                   XFORM       3D     30
     100      16       1       1       0       0      29       001010000D     31
     100       0       0       1       0                     ARC       3D     32
     124      17       1       1       0       0       0       001000000D     33
     124       0       0       1       0                   XFORM       4D     34
     100      18       1       1       0       0      33       001010000D     35
     100       0       0       1       0                     ARC       4D     36
     124      19       1       1       0       0       0       001000000D     37
     124       0       0       1       0                   XFORM       5D     38
     100      20       1       1       0       0      37       001010000D     39
     100       0       0       1       0                     ARC       5D     40
     124      21       1       1       0       0       0       001000000D     41
     124       0       0       1       0                   XFORM       6D     42
     100      22       1       1       0       0      41       001010000D     43
     100       0       0       1       0                     ARC       6D     44
     110      23       1       1       0       0       0       001010000D     45
     110       0       0       1       0                    LINE       3D     46
     110      24       1       1       0       0       0       001010000D     47
     110       0       0       1       0                    LINE       4D     48
     124      25       1       1       0       0       0       001000000D     49
     124       0       0       1       0                   XFORM       7D     50
     100      26       1       1       0       0      49       001010000D     51
     100       0       0       1       0                     ARC       7D     52
     124      27       1       1       0       0       0       001000000D     53
     124       0       0       1       0                   XFORM       8D     54
     100      28       1       1       0       0      53       001010000D     55
     100       0       0       1       0                     ARC       8D     56
     502      29       1       1       0       0       0       001010000D     57
     502       0       0       3       1                  VERTEX       1D     58
     504      32       1       1       0       0       0       000010001D     59
     504       0       0       3       1                    EDGE       1D     60
     128      35       1       1       0       0       0       001010000D     61
     128       0       0       4       0                  SPLSRF       1D     62
     508      39       1       1       0       0       0       001010000D     63
     508       0       0       1       1                EDGELOOP       1D     64
     510      40       1       1       0       0       0       000010000D     65
     510       0       0       1       1                    FACE       1D     66
     110      41       1       1       0       0       0       001010000D     67
     110       0       0       1       0                    LINE       5D     68
     110      42       1       1       0       0       0       001010000D     69
     110       0       0       1       0                    LINE       6D     70
     120      43       1       1       0       0       0       001010000D     71
     120       0       0       1       0                    SREV       1D     72
     508      44       1       1       0       0       0       001010000D     73
     508       0       0       1       1                EDGELOOP       2D     74
     510      45       1       1       0       0       0       000010000D     75
     510       0       0       1       1                    FACE       2D     76
     110      46       1       1       0       0       0       001010000D     77
     110       0       0       1       0                    LINE       7D     78
     110      47       1       1       0       0       0       001010000D     79
     110       0       0       1       0                    LINE       8D     80
     120      48       1       1       0       0       0       001010000D     81
     120       0       0       1       0                    SREV       2D     82
     508      49       1       1       0       0       0       001010000D     83
     508       0       0       1       1                EDGELOOP       3D     84
     510      50       1       1       0       0       0       000010000D     85
     510       0       0       1       1                    FACE       3D     86
     128      51       1       1       0       0       0       001010000D     87
     128       0       0       4       0                  SPLSRF       2D     88
     508      55       1       1       0       0       0       001010000D     89
     508       0       0       1       1                EDGELOOP       4D     90
     508      56       1       1       0       0       0       001010000D     91
     508       0       0       1       1                EDGELOOP       5D     92
     510      57       1       1       0       0       0       000010000D     93
     510       0       0       1       1                    FACE       4D     94
     110      58       1       1       0       0       0       001010000D     95
     110       0       0       1       0                    LINE       9D     96
     110      59       1       1       0       0       0       001010000D     97
     110       0       0       1       0                    LINE      10D     98
     120      60       1       1       0       0       0       001010000D     99
     120       0       0       1       0                    SREV       3D    100
     508      61       1       1       0       0       0       001010000D    101
     508       0       0       1       1                EDGELOOP       6D    102
     510      62       1       1       0       0       0       000010000D    103
     510       0       0       1       1                    FACE       5D    104
     110      63       1       1       0       0       0       001010000D    105
     110       0       0       1       0                    LINE      11D    106
     110      64       1       1       0       0       0       001010000D    107
     110       0       0       1       0                    LINE      12D    108
     120      65       1       1       0       0       0       001010000D    109
     120       0       0       1       0                    SREV       4D    110
     508      66       1       1       0       0       0       001010000D    111
     508       0       0       1       1                EDGELOOP       7D    112
     510      67       1       1       0       0       0       000010000D    113
     510       0       0       1       1                    FACE       6D    114
     128      68       1       1       0       0       0       001010000D    115
     128       0       0       6       0                  SPLSRF       3D    116
     508      74       1       1       0       0       0       001010000D    117
     508       0       0       1       1                EDGELOOP       8D    118
     510      75       1       1       0       0       0       000010000D    119
     510       0       0       1       1                    FACE       7D    120
     514      76       1       1       0       0       0       000000000D    121
     514       0       0       1       1                   SHELL       1D    122
     186      77       1       1       0       0       0       000000000D    123
     186       0       0       1       0                    MSBR       1D    124
314,1.1D0,1.2D0,1D2;                                                   1P      1
314,1.1D1,1.1D1,1.1D1;                                                 3P      2
314,3.92D1,1.2D0,1.2D0;                                                5P      3
314,4.1D1,0D0,2.2D1;                                                   7P      4
314,8.784D1,9.49D1,1D2;                                                9P      5
314,9.6D1,9.6D1,9.6D1;                                                11P      6
314,9.8D1,6.27D1,0D0;                                                 13P      7
314,1D2,1D2,9.49D1;                                                   15P      8
124,-1D0,0D0,0D0,0D0,0D0,0D0,-1D0,2D3,0D0,-1D0,0D0,0D0;               17P      9
100,0D0,0D0,0D0,2.25D1,0D0,-2.25D1,0D0;                               19P     10
124,1D0,0D0,0D0,0D0,0D0,0D0,-1D0,2D3,0D0,1D0,0D0,0D0;                 21P     11
100,0D0,0D0,0D0,2.25D1,0D0,-2.25D1,0D0;                               23P     12
110,2.25D1,1.895D3,0D0,2.25D1,2D3,0D0;                                25P     13
110,-2.25D1,1.895D3,0D0,-2.25D1,2D3,0D0;                              27P     14
124,-1D0,0D0,0D0,0D0,0D0,0D0,-1D0,1.895D3,0D0,-1D0,0D0,0D0;           29P     15
100,0D0,0D0,0D0,2.25D1,0D0,-2.25D1,0D0;                               31P     16
124,1D0,0D0,0D0,0D0,0D0,0D0,-1D0,1.895D3,0D0,1D0,0D0,0D0;             33P     17
100,0D0,0D0,0D0,2.25D1,0D0,-2.25D1,0D0;                               35P     18
124,1D0,0D0,0D0,0D0,0D0,0D0,1D0,1.895D3,0D0,-1D0,0D0,0D0;             37P     19
100,0D0,0D0,0D0,1.95D1,0D0,-1.95D1,0D0;                               39P     20
124,-1D0,0D0,0D0,0D0,0D0,0D0,1D0,1.895D3,0D0,1D0,0D0,0D0;             41P     21
100,0D0,0D0,0D0,1.95D1,0D0,-1.95D1,0D0;                               43P     22
110,1.95D1,1.895D3,0D0,1.95D1,1.997D3,0D0;                            45P     23
110,-1.95D1,1.895D3,0D0,-1.95D1,1.997D3,0D0;                          47P     24
124,-1D0,0D0,0D0,0D0,0D0,0D0,-1D0,1.997D3,0D0,-1D0,0D0,0D0;           49P     25
100,0D0,0D0,0D0,1.95D1,0D0,-1.95D1,0D0;                               51P     26
124,1D0,0D0,0D0,0D0,0D0,0D0,-1D0,1.997D3,0D0,1D0,0D0,0D0;             53P     27
100,0D0,0D0,0D0,1.95D1,0D0,-1.95D1,0D0;                               55P     28
502,8,-2.25D1,2D3,0D0,2.25D1,2D3,0D0,-2.25D1,1.895D3,0D0,2.25D1,      57P     29
1.895D3,0D0,-1.95D1,1.997D3,0D0,1.95D1,1.997D3,0D0,1.95D1,            57P     30
1.895D3,0D0,-1.95D1,1.895D3,0D0;                                      57P     31
504,12,19,57,1,57,2,23,57,2,57,1,31,57,3,57,4,35,57,4,57,3,25,        59P     32
57,4,57,2,27,57,3,57,1,51,57,5,57,6,55,57,6,57,5,39,57,7,57,8,        59P     33
43,57,8,57,7,45,57,7,57,6,47,57,8,57,5;                               59P     34
128,1,1,1,1,0,0,1,0,0,-2.34D1,-2.34D1,2.34D1,2.34D1,-2.34D1,          61P     35
-2.34D1,2.34D1,2.34D1,1D0,1D0,1D0,1D0,-2.34D1,2D3,2.34D1,2.34D1,      61P     36
2D3,2.34D1,-2.34D1,2D3,-2.34D1,2.34D1,2D3,-2.34D1,-2.34D1,            61P     37
2.34D1,-2.34D1,2.34D1;                                                61P     38
508,2,0,59,1,1,0,0,59,2,1,0;                                          63P     39
510,61,1,0,63;                                                        65P     40
110,0D0,2D3,0D0,0D0,2.001D3,0D0;                                      67P     41
110,2.25D1,1.8929D3,0D0,2.25D1,2.0021D3,0D0;                          69P     42
120,67,69,-6.283185307180D-2,3.204424506662D0;                        71P     43
508,4,0,59,1,0,0,0,59,6,0,0,0,59,3,1,0,0,59,5,1,0;                    73P     44
510,71,1,0,73;                                                        75P     45
110,0D0,2D3,0D0,0D0,2.001D3,0D0;                                      77P     46
110,2.25D1,1.8929D3,0D0,2.25D1,2.0021D3,0D0;                          79P     47
120,77,79,3.078760800518D0,6.346017160251D0;                          81P     48
508,4,0,59,2,0,0,0,59,5,0,0,0,59,4,1,0,0,59,6,1,0;                    83P     49
510,81,1,0,83;                                                        85P     50
128,1,1,1,1,0,0,1,0,0,-2.34D1,-2.34D1,2.34D1,2.34D1,-2.34D1,          87P     51
-2.34D1,2.34D1,2.34D1,1D0,1D0,1D0,1D0,-2.34D1,1.895D3,2.34D1,         87P     52
2.34D1,1.895D3,2.34D1,-2.34D1,1.895D3,-2.34D1,2.34D1,1.895D3,         87P     53
-2.34D1,-2.34D1,2.34D1,-2.34D1,2.34D1;                                87P     54
508,2,0,59,3,0,0,0,59,4,0,0;                                          89P     55
508,2,0,59,9,0,0,0,59,10,0,0;                                         91P     56
510,87,2,0,89,91;                                                     93P     57
110,0D0,2D3,0D0,0D0,2.001D3,0D0;                                      95P     58
110,1.95D1,1.89296D3,0D0,1.95D1,1.99904D3,0D0;                        97P     59
120,95,97,-6.283185307180D-2,3.204424506662D0;                        99P     60
508,4,0,59,9,1,0,0,59,12,1,0,0,59,7,1,0,0,59,11,0,0;                 101P     61
510,99,1,0,101;                                                      103P     62
110,0D0,2D3,0D0,0D0,2.001D3,0D0;                                     105P     63
110,1.95D1,1.89296D3,0D0,1.95D1,1.99904D3,0D0;                       107P     64
120,105,107,3.078760800518D0,6.346017160251D0;                       109P     65
508,4,0,59,10,1,0,0,59,11,1,0,0,59,8,1,0,0,59,12,0,0;                111P     66
510,109,1,0,111;                                                     113P     67
128,1,1,1,1,0,0,1,0,0,-2.028D1,-2.028D1,2.028D1,2.028D1,             115P     68
-2.030065125868D1,-2.030065125868D1,2.030065125868D1,                115P     69
2.030065125868D1,1D0,1D0,1D0,1D0,-2.028D1,1.997D3,                   115P     70
2.030065125868D1,2.028D1,1.997D3,2.030065125868D1,-2.028D1,          115P     71
1.997D3,-2.030065125868D1,2.028D1,1.997D3,-2.030065125868D1,         115P     72
-2.028D1,2.028D1,-2.030065125868D1,2.030065125868D1;                 115P     73
508,2,0,59,7,0,0,0,59,8,0,0;                                         117P     74
510,115,1,0,117;                                                     119P     75
514,7,65,1,75,1,85,1,93,0,103,0,113,0,119,0;                         121P     76
186,121,1,0;                                                         123P     77
S      1G      4D    124P     77                                        T      1
