 PTC IGES file: mice7-005_mir_mir.igs                                   S      1
1H,,1H;,17HMICE7-005_MIR_MIR,21Hmice7-005_mir_mir.igs,                  G      1
49HPro/ENGINEER by Parametric Technology Corporation,7H2004110,32,38,7, G      2
38,15,17HMICE7-005_MIR_MIR,1.,2,2HMM,32768,0.5,13H080428.080948,        G      3
0.00895788,89.5824,10Hliuxiaokun,7HUnknown,10,0,13H080428.080948;       G      4
     314       1       1       1       0       0       0       001000200D      1
     314       0       4       1       0                   COLOR       1D      2
     314       2       1       1       0       0       0       001000200D      3
     314       0       1       1       0                   COLOR       2D      4
     314       3       1       1       0       0       0       001000200D      5
     314       0       1       1       0                   COLOR       3D      6
     314       4       1       1       0       0       0       001000200D      7
     314       0       1       1       0                   COLOR       4D      8
     314       5       1       1       0       0       0       001000200D      9
     314       0       8       1       0                   COLOR       5D     10
     314       6       1       1       0       0       0       001000200D     11
     314       0       8       1       0                   COLOR       6D     12
     314       7       1       1       0       0       0       001000200D     13
     314       0       8       1       0                   COLOR       7D     14
     314       8       1       1       0       0       0       001000200D     15
     314       0       5       1       0                   COLOR       8D     16
     314       9       1       1       0       0       0       001000200D     17
     314       0       8       1       0                   COLOR       9D     18
     124      10       1       1       0       0       0       001000000D     19
     124       0       0       1       0                   XFORM       1D     20
     100      11       1       1       0       0      19       001010000D     21
     100       0      -9       1       0                     ARC       1D     22
     124      12       1       1       0       0       0       001000000D     23
     124       0       0       1       0                   XFORM       2D     24
     100      13       1       1       0       0      23       001010000D     25
     100       0      -9       1       0                     ARC       2D     26
     124      14       1       1       0       0       0       001000000D     27
     124       0       0       1       0                   XFORM       3D     28
     100      15       1       1       0       0      27       001010000D     29
     100       0      -9       1       0                     ARC       3D     30
     124      16       1       1       0       0       0       001000000D     31
     124       0       0       1       0                   XFORM       4D     32
     100      17       1       1       0       0      31       001010000D     33
     100       0      -9       1       0                     ARC       4D     34
     124      18       1       1       0       0       0       001000000D     35
     124       0       0       1       0                   XFORM       5D     36
     100      19       1       1       0       0      35       001010000D     37
     100       0      -9       1       0                     ARC       5D     38
     110      20       1       1       0       0       0       001010000D     39
     110       0      -9       1       0                    LINE       1D     40
     124      21       1       1       0       0       0       001000000D     41
     124       0       0       1       0                   XFORM       6D     42
     100      22       1       1       0       0      41       001010000D     43
     100       0      -9       1       0                     ARC       6D     44
     110      23       1       1       0       0       0       001010000D     45
     110       0      -9       1       0                    LINE       2D     46
     124      24       1       1       0       0       0       001000000D     47
     124       0       0       1       0                   XFORM       7D     48
     100      25       1       1       0       0      47       001010000D     49
     100       0      -9       1       0                     ARC       7D     50
     124      26       1       1       0       0       0       001000000D     51
     124       0       0       1       0                   XFORM       8D     52
     100      27       1       1       0       0      51       001010000D     53
     100       0      -9       1       0                     ARC       8D     54
     124      28       1       1       0       0       0       001000000D     55
     124       0       0       1       0                   XFORM       9D     56
     100      29       1       1       0       0      55       001010000D     57
     100       0      -9       1       0                     ARC       9D     58
     124      30       1       1       0       0       0       001000000D     59
     124       0       0       1       0                   XFORM      10D     60
     100      31       1       1       0       0      59       001010000D     61
     100       0      -9       1       0                     ARC      10D     62
     110      32       1       1       0       0       0       001010000D     63
     110       0      -9       1       0                    LINE       3D     64
     110      33       1       1       0       0       0       001010000D     65
     110       0      -9       1       0                    LINE       4D     66
     124      34       1       1       0       0       0       001000000D     67
     124       0       0       1       0                   XFORM      11D     68
     100      35       1       1       0       0      67       001010000D     69
     100       0      -9       1       0                     ARC      11D     70
     124      36       1       1       0       0       0       001000000D     71
     124       0       0       1       0                   XFORM      12D     72
     100      37       1       1       0       0      71       001010000D     73
     100       0      -9       1       0                     ARC      12D     74
     502      38       1       1       0       0       0       001010000D     75
     502       0      -9       3       1                  VERTEX       1D     76
     504      41       1       1       0       0       0       001010001D     77
     504       0      -9       4       1                    EDGE       1D     78
     128      45       1       1       0       0       0       001010000D     79
     128       0      -9       6       0                  SPLSRF       1D     80
     508      51       1       1       0       0       0       001010000D     81
     508       0       0       1       1                EDGELOOP       1D     82
     510      52       1       1       0       0       0       001010000D     83
     510       0      -9       1       1                    FACE       1D     84
     110      53       1       1       0       0       0       001010000D     85
     110       0      -9       1       0                    LINE       5D     86
     124      54       1       1       0       0       0       001000000D     87
     124       0       0       4       0                   XFORM      13D     88
     100      58       1       1       0       0      87       001010000D     89
     100       0      -9       1       0                     ARC      13D     90
     120      59       1       1       0       0       0       001010000D     91
     120       0      -9       1       0                    SREV       1D     92
     508      60       1       1       0       0       0       001010000D     93
     508       0       0       1       1                EDGELOOP       2D     94
     510      61       1       1       0       0       0       001010000D     95
     510       0      -9       1       1                    FACE       2D     96
     110      62       1       1       0       0       0       001010000D     97
     110       0      -9       1       0                    LINE       6D     98
     124      63       1       1       0       0       0       001000000D     99
     124       0       0       4       0                   XFORM      14D    100
     100      67       1       1       0       0      99       001010000D    101
     100       0      -9       1       0                     ARC      14D    102
     120      68       1       1       0       0       0       001010000D    103
     120       0      -9       1       0                    SREV       2D    104
     508      69       1       1       0       0       0       001010000D    105
     508       0       0       1       1                EDGELOOP       3D    106
     510      70       1       1       0       0       0       001010000D    107
     510       0      -9       1       1                    FACE       3D    108
     110      71       1       1       0       0       0       001010000D    109
     110       0      -9       1       0                    LINE       7D    110
     110      72       1       1       0       0       0       001010000D    111
     110       0      -9       1       0                    LINE       8D    112
     120      73       1       1       0       0       0       001010000D    113
     120       0      -9       1       0                    SREV       3D    114
     508      74       1       1       0       0       0       001010000D    115
     508       0       0       1       1                EDGELOOP       4D    116
     510      75       1       1       0       0       0       001010000D    117
     510       0      -9       1       1                    FACE       4D    118
     110      76       1       1       0       0       0       001010000D    119
     110       0      -9       1       0                    LINE       9D    120
     110      77       1       1       0       0       0       001010000D    121
     110       0      -9       1       0                    LINE      10D    122
     120      78       1       1       0       0       0       001010000D    123
     120       0      -9       1       0                    SREV       4D    124
     508      79       1       1       0       0       0       001010000D    125
     508       0       0       1       1                EDGELOOP       5D    126
     510      80       1       1       0       0       0       001010000D    127
     510       0      -9       1       1                    FACE       5D    128
     128      81       1       1       0       0       0       001010000D    129
     128       0      -9       4       0                  SPLSRF       2D    130
     508      85       1       1       0       0       0       001010000D    131
     508       0       0       1       1                EDGELOOP       6D    132
     508      86       1       1       0       0       0       001010000D    133
     508       0       0       1       1                EDGELOOP       7D    134
     510      87       1       1       0       0       0       001010000D    135
     510       0      -9       1       1                    FACE       6D    136
     110      88       1       1       0       0       0       001010000D    137
     110       0      -9       1       0                    LINE      11D    138
     110      89       1       1       0       0       0       001010000D    139
     110       0      -9       1       0                    LINE      12D    140
     120      90       1       1       0       0       0       001010000D    141
     120       0      -9       1       0                    SREV       5D    142
     508      91       1       1       0       0       0       001010000D    143
     508       0       0       1       1                EDGELOOP       8D    144
     510      92       1       1       0       0       0       001010000D    145
     510       0      -9       1       1                    FACE       7D    146
     110      93       1       1       0       0       0       001010000D    147
     110       0      -9       1       0                    LINE      13D    148
     110      94       1       1       0       0       0       001010000D    149
     110       0      -9       1       0                    LINE      14D    150
     120      95       1       1       0       0       0       001010000D    151
     120       0      -9       1       0                    SREV       6D    152
     508      96       1       1       0       0       0       001010000D    153
     508       0       0       1       1                EDGELOOP       9D    154
     510      97       1       1       0       0       0       001010000D    155
     510       0      -9       1       1                    FACE       8D    156
     128      98       1       1       0       0       0       001010000D    157
     128       0      -9       6       0                  SPLSRF       3D    158
     508     104       1       1       0       0       0       001010000D    159
     508       0       0       1       1                EDGELOOP      10D    160
     510     105       1       1       0       0       0       001010000D    161
     510       0      -9       1       1                    FACE       9D    162
     514     106       1       1       0       0       0       001000000D    163
     514       0      -9       1       1                   SHELL       1D    164
     186     107       1       1       0       0       0       000000000D    165
     186       0      -9       1       0                    MSBR       1D    166
314,1.1D0,1.2D0,1D2;                                                   1P      1
314,1.1D1,1.1D1,1.1D1;                                                 3P      2
314,3.92D1,1.2D0,1.2D0;                                                5P      3
314,4.1D1,0D0,2.2D1;                                                   7P      4
314,6.8D1,7.2D1,6.2D1;                                                 9P      5
314,8.784D1,9.49D1,1D2;                                               11P      6
314,9.6D1,9.6D1,9.6D1;                                                13P      7
314,9.8D1,6.27D1,0D0;                                                 15P      8
314,1D2,1D2,9.49D1;                                                   17P      9
124,1D0,0D0,0D0,0D0,0D0,-1D0,0D0,0D0,0D0,0D0,-1D0,0D0;                19P     10
100,0D0,0D0,0D0,2.299999995513D1,0D0,-2.299999995513D1,0D0;           21P     11
124,-1D0,0D0,0D0,0D0,0D0,1D0,0D0,0D0,0D0,0D0,-1D0,0D0;                23P     12
100,0D0,0D0,0D0,2.299999995513D1,0D0,-2.299999995513D1,0D0;           25P     13
124,0D0,1D0,0D0,2.3D1,0D0,0D0,-1D0,0D0,-1D0,0D0,0D0,2D0;              27P     14
100,0D0,0D0,0D0,2D0,0D0,0D0,2D0;                                      29P     15
124,0D0,-1D0,0D0,-2.3D1,0D0,0D0,1D0,0D0,-1D0,0D0,0D0,2D0;             31P     16
100,0D0,0D0,0D0,2D0,0D0,-1.053568040102D-14,2D0;                      33P     17
124,-1D0,0D0,0D0,0D0,0D0,1D0,0D0,0D0,0D0,0D0,-1D0,2D0;                35P     18
100,0D0,0D0,0D0,2.5D1,0D0,-2.5D1,0D0;                                 37P     19
110,2.5D1,9.199039510547D-11,2D0,2.5D1,0D0,5.5D1;                     39P     20
124,1D0,0D0,0D0,0D0,0D0,-1D0,0D0,0D0,0D0,0D0,-1D0,2D0;                41P     21
100,0D0,0D0,0D0,2.5D1,0D0,-2.5D1,0D0;                                 43P     22
110,-2.5D1,-9.199676017182D-11,2D0,-2.5D1,0D0,5.5D1;                  45P     23
124,1D0,0D0,0D0,0D0,0D0,1D0,0D0,0D0,0D0,0D0,1D0,5.5D1;                47P     24
100,0D0,0D0,0D0,2.5D1,0D0,-2.5D1,0D0;                                 49P     25
124,-1D0,0D0,0D0,0D0,0D0,-1D0,0D0,0D0,0D0,0D0,1D0,5.5D1;              51P     26
100,0D0,0D0,0D0,2.5D1,0D0,-2.5D1,0D0;                                 53P     27
124,1D0,0D0,0D0,0D0,0D0,1D0,0D0,0D0,0D0,0D0,1D0,5.5D1;                55P     28
100,0D0,0D0,0D0,2.3D1,0D0,-2.3D1,0D0;                                 57P     29
124,-1D0,0D0,0D0,0D0,0D0,-1D0,0D0,0D0,0D0,0D0,1D0,5.5D1;              59P     30
100,0D0,0D0,0D0,2.3D1,0D0,-2.3D1,0D0;                                 61P     31
110,2.3D1,0D0,2D0,2.3D1,0D0,5.5D1;                                    63P     32
110,-2.3D1,0D0,2D0,-2.3D1,0D0,5.5D1;                                  65P     33
124,1D0,0D0,0D0,0D0,0D0,1D0,0D0,0D0,0D0,0D0,1D0,2D0;                  67P     34
100,0D0,0D0,0D0,2.3D1,0D0,-2.3D1,0D0;                                 69P     35
124,-1D0,0D0,0D0,0D0,0D0,-1D0,0D0,0D0,0D0,0D0,1D0,2D0;                71P     36
100,0D0,0D0,0D0,2.3D1,0D0,-2.3D1,0D0;                                 73P     37
502,10,2.5D1,0D0,5.5D1,-2.5D1,0D0,5.5D1,2.3D1,0D0,2D0,-2.3D1,         75P     38
0D0,2D0,2.3D1,0D0,5.5D1,-2.3D1,0D0,5.5D1,2.299999995513D1,0D0,        75P     39
0D0,-2.299999995513D1,0D0,0D0,2.5D1,0D0,2D0,-2.5D1,0D0,2D0;           75P     40
504,16,49,75,1,75,2,53,75,2,75,1,69,75,3,75,4,73,75,4,75,3,57,        77P     41
75,5,75,6,61,75,6,75,5,63,75,3,75,5,65,75,4,75,6,21,75,7,75,8,        77P     42
43,75,9,75,10,25,75,8,75,7,37,75,10,75,9,39,75,9,75,1,45,75,10,       77P     43
75,2,33,75,8,75,10,29,75,7,75,9;                                      77P     44
128,1,1,1,1,0,0,1,0,0,-2.392D1,-2.392D1,2.392D1,2.392D1,              79P     45
-2.391999997286D1,-2.391999997286D1,2.391999997286D1,                 79P     46
2.391999997286D1,1D0,1D0,1D0,1D0,-2.392D1,-2.391999997286D1,0D0,      79P     47
2.392D1,-2.391999997286D1,0D0,-2.392D1,2.391999997286D1,0D0,          79P     48
2.392D1,2.391999997286D1,0D0,-2.392D1,2.392D1,-2.391999997286D1,      79P     49
2.391999997286D1;                                                     79P     50
508,2,0,77,9,0,0,0,77,11,0,0;                                         81P     51
510,79,1,0,81;                                                        83P     52
110,0D0,0D0,2D0,0D0,0D0,3D0;                                          85P     53
124,-5.372374980622D-2,9.985251622846D-1,7.826812333570D-3,           87P     54
2.299929551081D1,-4.204985874459D-4,7.815508444298D-3,                87P     55
-9.999693700353D-1,1.800166836721D-1,-9.985557480119D-1,              87P     56
-5.372539541318D-2,0D0,2D0;                                           87P     57
100,0D0,0D0,0D0,2D0,0D0,-2.145875188474D-1,1.988454725850D0;          89P     58
120,85,89,-3.212251399044D0,5.500496083474D-2;                        91P     59
508,4,0,77,9,1,0,0,77,15,1,0,0,77,10,0,0,0,77,16,0,0;                 93P     60
510,91,1,0,93;                                                        95P     61
110,0D0,0D0,2D0,0D0,0D0,3D0;                                          97P     62
124,5.372374980622D-2,-9.985251622846D-1,-7.826812333571D-3,          99P     63
-2.299929551081D1,4.204985874459D-4,-7.815508444299D-3,               99P     64
9.999693700353D-1,-1.800166836721D-1,-9.985557480119D-1,              99P     65
-5.372539541318D-2,0D0,2D0;                                           99P     66
100,0D0,0D0,0D0,2D0,0D0,-2.145875188474D-1,1.988454725850D0;         101P     67
120,97,101,-3.212251399044D0,5.500496083474D-2;                      103P     68
508,4,0,77,11,1,0,0,77,16,1,0,0,77,12,0,0,0,77,15,0,0;               105P     69
510,103,1,0,105;                                                     107P     70
110,0D0,0D0,0D0,0D0,0D0,1D0;                                         109P     71
110,2.5D1,0D0,9.4D-1,2.5D1,0D0,5.606D1;                              111P     72
120,109,111,-6.283185307180D-2,3.204424506662D0;                     113P     73
508,4,0,77,12,1,0,0,77,13,1,0,0,77,1,1,0,0,77,14,0,0;                115P     74
510,113,1,0,115;                                                     117P     75
110,0D0,0D0,0D0,0D0,0D0,1D0;                                         119P     76
110,2.5D1,0D0,9.4D-1,2.5D1,0D0,5.606D1;                              121P     77
120,119,121,3.078760800518D0,6.346017160251D0;                       123P     78
508,4,0,77,10,1,0,0,77,14,1,0,0,77,2,1,0,0,77,13,0,0;                125P     79
510,123,1,0,125;                                                     127P     80
128,1,1,1,1,0,0,1,0,0,-2.6D1,-2.6D1,2.6D1,2.6D1,-2.6D1,-2.6D1,       129P     81
2.6D1,2.6D1,1D0,1D0,1D0,1D0,-2.6D1,-2.6D1,5.5D1,2.6D1,-2.6D1,        129P     82
5.5D1,-2.6D1,2.6D1,5.5D1,2.6D1,2.6D1,5.5D1,-2.6D1,2.6D1,-2.6D1,      129P     83
2.6D1;                                                               129P     84
508,2,0,77,1,0,0,0,77,2,0,0;                                         131P     85
508,2,0,77,5,1,0,0,77,6,1,0;                                         133P     86
510,129,2,0,131,133;                                                 135P     87
110,0D0,0D0,0D0,0D0,0D0,1D0;                                         137P     88
110,2.3D1,0D0,9.4D-1,2.3D1,0D0,5.606D1;                              139P     89
120,137,139,-6.283185307180D-2,3.204424506662D0;                     141P     90
508,4,0,77,5,0,0,0,77,7,0,0,0,77,3,1,0,0,77,8,1,0;                   143P     91
510,141,1,0,143;                                                     145P     92
110,0D0,0D0,0D0,0D0,0D0,1D0;                                         147P     93
110,2.3D1,0D0,9.4D-1,2.3D1,0D0,5.606D1;                              149P     94
120,147,149,3.078760800518D0,6.346017160251D0;                       151P     95
508,4,0,77,6,0,0,0,77,8,0,0,0,77,4,1,0,0,77,7,1,0;                   153P     96
510,151,1,0,153;                                                     155P     97
128,1,1,1,1,0,0,1,0,0,-2.392D1,-2.392D1,2.392D1,2.392D1,             157P     98
-2.394005547397D1,-2.394005547397D1,2.394005547397D1,                157P     99
2.394005547397D1,1D0,1D0,1D0,1D0,-2.392D1,-2.394005547397D1,2D0,     157P    100
2.392D1,-2.394005547397D1,2D0,-2.392D1,2.394005547397D1,2D0,         157P    101
2.392D1,2.394005547397D1,2D0,-2.392D1,2.392D1,-2.394005547397D1,     157P    102
2.394005547397D1;                                                    157P    103
508,2,0,77,3,0,0,0,77,4,0,0;                                         159P    104
510,157,1,0,159;                                                     161P    105
514,9,83,0,95,1,107,1,117,1,127,1,135,1,145,0,155,0,161,1;           163P    106
186,163,1,0;                                                         165P    107
S      1G      4D    166P    107                                        T      1
