 PTC IGES file: mice7-001n_mir_af0.igs                                  S      1
1H,,1H;,18HMICE7-001N_MIR_AF0,22Hmice7-001n_mir_af0.igs,                G      1
49HPro/ENGINEER by Parametric Technology Corporation,7H2004110,32,38,7, G      2
38,15,18HMICE7-001N_MIR_AF0,1.,2,2HMM,32768,0.5,13H080428.080950,       G      3
0.0372496,372.511,10Hliuxiaokun,7HUnknown,10,0,13H080428.080950;        G      4
     314       1       1       1       0       0       0       001000200D      1
     314       0       4       1       0                   COLOR       1D      2
     314       2       1       1       0       0       0       001000200D      3
     314       0       1       1       0                   COLOR       2D      4
     314       3       1       1       0       0       0       001000200D      5
     314       0       1       1       0                   COLOR       3D      6
     314       4       1       1       0       0       0       001000200D      7
     314       0       1       1       0                   COLOR       4D      8
     314       5       1       1       0       0       0       001000200D      9
     314       0       8       1       0                   COLOR       5D     10
     314       6       1       1       0       0       0       001000200D     11
     314       0       8       1       0                   COLOR       6D     12
     314       7       1       1       0       0       0       001000200D     13
     314       0       8       1       0                   COLOR       7D     14
     314       8       1       1       0       0       0       001000200D     15
     314       0       5       1       0                   COLOR       8D     16
     314       9       1       1       0       0       0       001000200D     17
     314       0       8       1       0                   COLOR       9D     18
     124      10       1       1       0       0       0       001000000D     19
     124       0       0       1       0                   XFORM       1D     20
     100      11       1       1       0       0      19       001010000D     21
     100       0      -9       1       0                     ARC       1D     22
     110      12       1       1       0       0       0       001010000D     23
     110       0      -9       1       0                    LINE       1D     24
     124      13       1       1       0       0       0       001000000D     25
     124       0       0       1       0                   XFORM       2D     26
     100      14       1       1       0       0      25       001010000D     27
     100       0      -9       1       0                     ARC       2D     28
     110      15       1       1       0       0       0       001010000D     29
     110       0      -9       1       0                    LINE       2D     30
     110      16       1       1       0       0       0       001010000D     31
     110       0      -9       1       0                    LINE       3D     32
     124      17       1       1       0       0       0       001000000D     33
     124       0       0       1       0                   XFORM       3D     34
     100      18       1       1       0       0      33       001010000D     35
     100       0      -9       1       0                     ARC       3D     36
     110      19       1       1       0       0       0       001010000D     37
     110       0      -9       1       0                    LINE       4D     38
     124      20       1       1       0       0       0       001000000D     39
     124       0       0       1       0                   XFORM       4D     40
     100      21       1       1       0       0      39       001010000D     41
     100       0      -9       1       0                     ARC       4D     42
     110      22       1       1       0       0       0       001010000D     43
     110       0      -9       1       0                    LINE       5D     44
     110      23       1       1       0       0       0       001010000D     45
     110       0      -9       1       0                    LINE       6D     46
     110      24       1       1       0       0       0       001010000D     47
     110       0      -9       1       0                    LINE       7D     48
     110      25       1       1       0       0       0       001010000D     49
     110       0      -9       1       0                    LINE       8D     50
     124      26       1       1       0       0       0       001000000D     51
     124       0       0       1       0                   XFORM       5D     52
     100      27       1       1       0       0      51       001010000D     53
     100       0      -9       1       0                     ARC       5D     54
     110      28       1       1       0       0       0       001010000D     55
     110       0      -9       1       0                    LINE       9D     56
     124      29       1       1       0       0       0       001000000D     57
     124       0       0       1       0                   XFORM       6D     58
     100      30       1       1       0       0      57       001010000D     59
     100       0      -9       1       0                     ARC       6D     60
     110      31       1       1       0       0       0       001010000D     61
     110       0      -9       1       0                    LINE      10D     62
     110      32       1       1       0       0       0       001010000D     63
     110       0      -9       1       0                    LINE      11D     64
     124      33       1       1       0       0       0       001000000D     65
     124       0       0       1       0                   XFORM       7D     66
     100      34       1       1       0       0      65       001010000D     67
     100       0      -9       1       0                     ARC       7D     68
     110      35       1       1       0       0       0       001010000D     69
     110       0      -9       1       0                    LINE      12D     70
     124      36       1       1       0       0       0       001000000D     71
     124       0       0       1       0                   XFORM       8D     72
     100      37       1       1       0       0      71       001010000D     73
     100       0      -9       1       0                     ARC       8D     74
     110      38       1       1       0       0       0       001010000D     75
     110       0      -9       1       0                    LINE      13D     76
     110      39       1       1       0       0       0       001010000D     77
     110       0      -9       1       0                    LINE      14D     78
     110      40       1       1       0       0       0       001010000D     79
     110       0      -9       1       0                    LINE      15D     80
     110      41       1       1       0       0       0       001010000D     81
     110       0      -9       1       0                    LINE      16D     82
     502      42       1       1       0       0       0       001010000D     83
     502       0      -9       5       1                  VERTEX       1D     84
     504      47       1       1       0       0       0       000010001D     85
     504       0      -9       6       1                    EDGE       1D     86
     128      53       1       1       0       0       0       001010000D     87
     128       0      -9       5       0                  SPLSRF       1D     88
     508      58       1       1       0       0       0       001010000D     89
     508       0       0       1       1                EDGELOOP       1D     90
     508      59       1       1       0       0       0       001010000D     91
     508       0       0       1       1                EDGELOOP       2D     92
     510      60       1       1       0       0       0       000010000D     93
     510       0      -9       1       1                    FACE       1D     94
     110      61       1       1       0       0       0       001010000D     95
     110       0      -9       1       0                    LINE      17D     96
     110      62       1       1       0       0       0       001010000D     97
     110       0      -9       1       0                    LINE      18D     98
     120      63       1       1       0       0       0       001010000D     99
     120       0      -9       1       0                    SREV       1D    100
     508      64       1       1       0       0       0       001010000D    101
     508       0       0       1       1                EDGELOOP       3D    102
     510      65       1       1       0       0       0       000010000D    103
     510       0      -9       1       1                    FACE       2D    104
     128      66       1       1       0       0       0       001010000D    105
     128       0      -9       5       0                  SPLSRF       2D    106
     508      71       1       1       0       0       0       001010000D    107
     508       0       0       1       1                EDGELOOP       4D    108
     510      72       1       1       0       0       0       000010000D    109
     510       0      -9       1       1                    FACE       3D    110
     110      73       1       1       0       0       0       001010000D    111
     110       0      -9       1       0                    LINE      19D    112
     110      74       1       1       0       0       0       001010000D    113
     110       0      -9       1       0                    LINE      20D    114
     120      75       1       1       0       0       0       001010000D    115
     120       0      -9       1       0                    SREV       2D    116
     508      76       1       1       0       0       0       001010000D    117
     508       0       0       1       1                EDGELOOP       5D    118
     510      77       1       1       0       0       0       000010000D    119
     510       0      -9       1       1                    FACE       4D    120
     128      78       1       1       0       0       0       001010000D    121
     128       0      -9       5       0                  SPLSRF       3D    122
     508      83       1       1       0       0       0       001010000D    123
     508       0       0       1       1                EDGELOOP       6D    124
     510      84       1       1       0       0       0       000010000D    125
     510       0      -9       1       1                    FACE       5D    126
     128      85       1       1       0       0       0       001010000D    127
     128       0      -9       5       0                  SPLSRF       4D    128
     508      90       1       1       0       0       0       001010000D    129
     508       0       0       1       1                EDGELOOP       7D    130
     508      91       1       1       0       0       0       001010000D    131
     508       0       0       1       1                EDGELOOP       8D    132
     510      92       1       1       0       0       0       000010000D    133
     510       0      -9       1       1                    FACE       6D    134
     128      93       1       1       0       0       0       001010000D    135
     128       0      -9       5       0                  SPLSRF       5D    136
     508      98       1       1       0       0       0       001010000D    137
     508       0       0       1       1                EDGELOOP       9D    138
     510      99       1       1       0       0       0       000010000D    139
     510       0      -9       1       1                    FACE       7D    140
     110     100       1       1       0       0       0       001010000D    141
     110       0      -9       1       0                    LINE      21D    142
     110     101       1       1       0       0       0       001010000D    143
     110       0      -9       1       0                    LINE      22D    144
     120     102       1       1       0       0       0       001010000D    145
     120       0      -9       1       0                    SREV       3D    146
     508     103       1       1       0       0       0       001010000D    147
     508       0       0       1       1                EDGELOOP      10D    148
     510     104       1       1       0       0       0       000010000D    149
     510       0      -9       1       1                    FACE       8D    150
     128     105       1       1       0       0       0       001010000D    151
     128       0      -9       5       0                  SPLSRF       6D    152
     508     110       1       1       0       0       0       001010000D    153
     508       0       0       1       1                EDGELOOP      11D    154
     510     111       1       1       0       0       0       000010000D    155
     510       0      -9       1       1                    FACE       9D    156
     110     112       1       1       0       0       0       001010000D    157
     110       0      -9       1       0                    LINE      23D    158
     110     113       1       1       0       0       0       001010000D    159
     110       0      -9       1       0                    LINE      24D    160
     120     114       1       1       0       0       0       001010000D    161
     120       0      -9       1       0                    SREV       4D    162
     508     115       1       1       0       0       0       001010000D    163
     508       0       0       1       1                EDGELOOP      12D    164
     510     116       1       1       0       0       0       000010000D    165
     510       0      -9       1       1                    FACE      10D    166
     514     117       1       1       0       0       0       000000000D    167
     514       0      -9       2       1                   SHELL       1D    168
     186     119       1       1       0       0       0       000000000D    169
     186       0      -9       1       0                    MSBR       1D    170
314,1.1D0,1.2D0,1D2;                                                   1P      1
314,1.1D1,1.1D1,1.1D1;                                                 3P      2
314,3.92D1,1.2D0,1.2D0;                                                5P      3
314,4.1D1,0D0,2.2D1;                                                   7P      4
314,8.63D1,9.41D1,8.04D1;                                              9P      5
314,8.784D1,9.49D1,1D2;                                               11P      6
314,9.6D1,9.6D1,9.6D1;                                                13P      7
314,9.8D1,6.27D1,0D0;                                                 15P      8
314,1D2,1D2,9.49D1;                                                   17P      9
124,0D0,-1D0,0D0,0D0,1D0,0D0,0D0,0D0,0D0,0D0,1D0,-2D1;                19P     10
100,0D0,0D0,0D0,3.7D1,0D0,-3.7D1,0D0;                                 21P     11
110,0D0,-3.7D1,-2D1,2.88889D2,-3.7D1,-2D1;                            23P     12
124,0D0,1D0,0D0,2.88889D2,-1D0,0D0,0D0,0D0,0D0,0D0,1D0,-2D1;          25P     13
100,0D0,0D0,0D0,3.7D1,0D0,-3.7D1,0D0;                                 27P     14
110,2.88889D2,3.7D1,-2D1,0D0,3.7D1,-2D1;                              29P     15
110,0D0,2.5D1,-2D1,2.88889D2,2.5D1,-2D1;                              31P     16
124,0D0,1D0,0D0,2.88889D2,1D0,0D0,0D0,0D0,0D0,0D0,-1D0,-2D1;          33P     17
100,0D0,0D0,0D0,2.5D1,0D0,-2.5D1,0D0;                                 35P     18
110,2.88889D2,-2.5D1,-2D1,0D0,-2.5D1,-2D1;                            37P     19
124,0D0,-1D0,0D0,0D0,-1D0,0D0,0D0,0D0,0D0,0D0,-1D0,-2D1;              39P     20
100,0D0,0D0,0D0,2.5D1,0D0,-2.5D1,0D0;                                 41P     21
110,0D0,3.7D1,-2D1,0D0,3.7D1,2D1;                                     43P     22
110,2.88889D2,3.7D1,-2D1,2.88889D2,3.7D1,2D1;                         45P     23
110,2.88889D2,-3.7D1,-2D1,2.88889D2,-3.7D1,2D1;                       47P     24
110,0D0,-3.7D1,-2D1,0D0,-3.7D1,2D1;                                   49P     25
124,0D0,-1D0,0D0,0D0,1D0,0D0,0D0,0D0,0D0,0D0,1D0,2D1;                 51P     26
100,0D0,0D0,0D0,3.7D1,0D0,-3.7D1,0D0;                                 53P     27
110,2.88889D2,3.7D1,2D1,0D0,3.7D1,2D1;                                55P     28
124,0D0,1D0,0D0,2.88889D2,-1D0,0D0,0D0,0D0,0D0,0D0,1D0,2D1;           57P     29
100,0D0,0D0,0D0,3.7D1,0D0,-3.7D1,0D0;                                 59P     30
110,0D0,-3.7D1,2D1,2.88889D2,-3.7D1,2D1;                              61P     31
110,0D0,2.5D1,2D1,2.88889D2,2.5D1,2D1;                                63P     32
124,0D0,-1D0,0D0,0D0,-1D0,0D0,0D0,0D0,0D0,0D0,-1D0,2D1;               65P     33
100,0D0,0D0,0D0,2.5D1,0D0,-2.5D1,0D0;                                 67P     34
110,2.88889D2,-2.5D1,2D1,0D0,-2.5D1,2D1;                              69P     35
124,0D0,1D0,0D0,2.88889D2,1D0,0D0,0D0,0D0,0D0,0D0,-1D0,2D1;           71P     36
100,0D0,0D0,0D0,2.5D1,0D0,-2.5D1,0D0;                                 73P     37
110,0D0,2.5D1,-2D1,0D0,2.5D1,2D1;                                     75P     38
110,0D0,-2.5D1,-2D1,0D0,-2.5D1,2D1;                                   77P     39
110,2.88889D2,-2.5D1,-2D1,2.88889D2,-2.5D1,2D1;                       79P     40
110,2.88889D2,2.5D1,-2D1,2.88889D2,2.5D1,2D1;                         81P     41
502,16,0D0,3.7D1,-2D1,0D0,-3.7D1,-2D1,2.88889D2,-3.7D1,-2D1,          83P     42
2.88889D2,3.7D1,-2D1,0D0,2.5D1,-2D1,2.88889D2,2.5D1,-2D1,             83P     43
2.88889D2,-2.5D1,-2D1,0D0,-2.5D1,-2D1,0D0,3.7D1,2D1,0D0,-3.7D1,       83P     44
2D1,2.88889D2,-3.7D1,2D1,2.88889D2,3.7D1,2D1,0D0,2.5D1,2D1,           83P     45
2.88889D2,2.5D1,2D1,2.88889D2,-2.5D1,2D1,0D0,-2.5D1,2D1;              83P     46
504,24,21,83,1,83,2,23,83,2,83,3,27,83,3,83,4,29,83,4,83,1,31,        85P     47
83,5,83,6,35,83,6,83,7,37,83,7,83,8,41,83,8,83,5,53,83,9,83,10,       85P     48
61,83,10,83,11,59,83,11,83,12,55,83,12,83,9,63,83,13,83,14,73,        85P     49
83,14,83,15,69,83,15,83,16,67,83,16,83,13,43,83,1,83,9,49,83,2,       85P     50
83,10,47,83,3,83,11,45,83,4,83,12,75,83,5,83,13,81,83,6,83,14,        85P     51
79,83,7,83,15,77,83,8,83,16;                                          85P     52
128,1,1,1,1,0,0,1,0,0,-4.425778D1,-4.425778D1,3.3314678D2,            87P     53
3.3314678D2,-3.848D1,-3.848D1,3.848D1,3.848D1,1D0,1D0,1D0,1D0,        87P     54
-4.425778D1,-3.848D1,-2D1,3.3314678D2,-3.848D1,-2D1,-4.425778D1,      87P     55
3.848D1,-2D1,3.3314678D2,3.848D1,-2D1,-4.425778D1,3.3314678D2,        87P     56
-3.848D1,3.848D1;                                                     87P     57
508,4,0,85,1,1,0,0,85,2,1,0,0,85,3,1,0,0,85,4,1,0;                    89P     58
508,4,0,85,5,1,0,0,85,6,1,0,0,85,7,1,0,0,85,8,1,0;                    91P     59
510,87,2,0,89,91;                                                     93P     60
110,0D0,0D0,-2D1,0D0,0D0,-1.9D1;                                      95P     61
110,3.7D1,0D0,-2.08D1,3.7D1,0D0,2.08D1;                               97P     62
120,95,97,1.507964473723D0,4.775220833456D0;                          99P     63
508,4,0,85,1,0,0,0,85,17,1,0,0,85,9,1,0,0,85,18,0,0;                 101P     64
510,99,1,0,101;                                                      103P     65
128,1,1,1,1,0,0,1,0,0,-5.77778D0,-5.77778D0,2.9466678D2,             105P     66
2.9466678D2,-8D-1,-8D-1,4.08D1,4.08D1,1D0,1D0,1D0,1D0,               105P     67
2.9466678D2,3.7D1,-2.08D1,-5.77778D0,3.7D1,-2.08D1,2.9466678D2,      105P     68
3.7D1,2.08D1,-5.77778D0,3.7D1,2.08D1,-5.77778D0,2.9466678D2,         105P     69
-8D-1,4.08D1;                                                        105P     70
508,4,0,85,4,0,0,0,85,20,1,0,0,85,12,1,0,0,85,17,0,0;                107P     71
510,105,1,0,107;                                                     109P     72
110,2.88889D2,0D0,-2D1,2.88889D2,0D0,-1.9D1;                         111P     73
110,3.25889D2,0D0,-2.08D1,3.25889D2,0D0,2.08D1;                      113P     74
120,111,113,4.649557127313D0,7.916813487046D0;                       115P     75
508,4,0,85,3,0,0,0,85,19,1,0,0,85,11,1,0,0,85,20,0,0;                117P     76
510,115,1,0,117;                                                     119P     77
128,1,1,1,1,0,0,1,0,0,-5.77778D0,-5.77778D0,2.9466678D2,             121P     78
2.9466678D2,-8D-1,-8D-1,4.08D1,4.08D1,1D0,1D0,1D0,1D0,               121P     79
-5.77778D0,-3.7D1,-2.08D1,2.9466678D2,-3.7D1,-2.08D1,-5.77778D0,     121P     80
-3.7D1,2.08D1,2.9466678D2,-3.7D1,2.08D1,-5.77778D0,2.9466678D2,      121P     81
-8D-1,4.08D1;                                                        121P     82
508,4,0,85,2,0,0,0,85,18,1,0,0,85,10,1,0,0,85,19,0,0;                123P     83
510,121,1,0,123;                                                     125P     84
128,1,1,1,1,0,0,1,0,0,-4.425778D1,-4.425778D1,3.3314678D2,           127P     85
3.3314678D2,-3.848D1,-3.848D1,3.848D1,3.848D1,1D0,1D0,1D0,1D0,       127P     86
-4.425778D1,-3.848D1,2D1,3.3314678D2,-3.848D1,2D1,-4.425778D1,       127P     87
3.848D1,2D1,3.3314678D2,3.848D1,2D1,-4.425778D1,3.3314678D2,         127P     88
-3.848D1,3.848D1;                                                    127P     89
508,4,0,85,9,0,0,0,85,12,0,0,0,85,11,0,0,0,85,10,0,0;                129P     90
508,4,0,85,13,0,0,0,85,16,0,0,0,85,15,0,0,0,85,14,0,0;               131P     91
510,127,2,0,129,131;                                                 133P     92
128,1,1,1,1,0,0,1,0,0,-5.77778D0,-5.77778D0,2.9466678D2,             135P     93
2.9466678D2,-8D-1,-8D-1,4.08D1,4.08D1,1D0,1D0,1D0,1D0,               135P     94
-5.77778D0,2.5D1,-2.08D1,2.9466678D2,2.5D1,-2.08D1,-5.77778D0,       135P     95
2.5D1,2.08D1,2.9466678D2,2.5D1,2.08D1,-5.77778D0,2.9466678D2,        135P     96
-8D-1,4.08D1;                                                        135P     97
508,4,0,85,5,0,0,0,85,21,1,0,0,85,13,1,0,0,85,22,0,0;                137P     98
510,135,1,0,137;                                                     139P     99
110,0D0,0D0,-2D1,0D0,0D0,-1.9D1;                                     141P    100
110,2.5D1,0D0,-2.08D1,2.5D1,0D0,2.08D1;                              143P    101
120,141,143,1.507964473723D0,4.775220833456D0;                       145P    102
508,4,0,85,8,0,0,0,85,24,1,0,0,85,16,1,0,0,85,21,0,0;                147P    103
510,145,1,0,147;                                                     149P    104
128,1,1,1,1,0,0,1,0,0,-5.77778D0,-5.77778D0,2.9466678D2,             151P    105
2.9466678D2,-8D-1,-8D-1,4.08D1,4.08D1,1D0,1D0,1D0,1D0,               151P    106
2.9466678D2,-2.5D1,-2.08D1,-5.77778D0,-2.5D1,-2.08D1,                151P    107
2.9466678D2,-2.5D1,2.08D1,-5.77778D0,-2.5D1,2.08D1,-5.77778D0,       151P    108
2.9466678D2,-8D-1,4.08D1;                                            151P    109
508,4,0,85,7,0,0,0,85,23,1,0,0,85,15,1,0,0,85,24,0,0;                153P    110
510,151,1,0,153;                                                     155P    111
110,2.88889D2,0D0,-2D1,2.88889D2,0D0,-1.9D1;                         157P    112
110,3.13889D2,0D0,-2.08D1,3.13889D2,0D0,2.08D1;                      159P    113
120,157,159,4.649557127313D0,7.916813487046D0;                       161P    114
508,4,0,85,6,0,0,0,85,22,1,0,0,85,14,1,0,0,85,23,0,0;                163P    115
510,161,1,0,163;                                                     165P    116
514,10,93,0,103,1,109,1,119,1,125,1,133,1,139,1,149,0,155,1,165,     167P    117
0;                                                                   167P    118
186,167,1,0;                                                         169P    119
S      1G      4D    170P    119                                        T      1
