 PTC IGES file: mice5-013m.igs                                          S      1
1H,,1H;,10HMICE5-013M,14Hmice5-013m.igs,                                G      1
49HPro/ENGINEER by Parametric Technology Corporation,7H2004110,32,38,7, G      2
38,15,10HMICE5-013M,1.,2,2HMM,32768,0.5,13H080428.080949,0.00382011,    G      3
38.2026,10Hliuxiaokun,7HUnknown,10,0,13H080428.080949;                  G      4
     314       1       1       1       0       0       0       001000200D      1
     314       0       4       1       0                   COLOR       1D      2
     314       2       1       1       0       0       0       001000200D      3
     314       0       1       1       0                   COLOR       2D      4
     314       3       1       1       0       0       0       001000200D      5
     314       0       1       1       0                   COLOR       3D      6
     314       4       1       1       0       0       0       001000200D      7
     314       0       1       1       0                   COLOR       4D      8
     314       5       1       1       0       0       0       001000200D      9
     314       0       8       1       0                   COLOR       5D     10
     314       6       1       1       0       0       0       001000200D     11
     314       0       8       1       0                   COLOR       6D     12
     314       7       1       1       0       0       0       001000200D     13
     314       0       8       1       0                   COLOR       7D     14
     314       8       1       1       0       0       0       001000200D     15
     314       0       5       1       0                   COLOR       8D     16
     314       9       1       1       0       0       0       001000200D     17
     314       0       8       1       0                   COLOR       9D     18
     124      10       1       1       0       0       0       001000000D     19
     124       0       0       1       0                   XFORM       1D     20
     100      11       1       1       0       0      19       001010000D     21
     100       0      -9       1       0                     ARC       1D     22
     124      12       1       1       0       0       0       001000000D     23
     124       0       0       1       0                   XFORM       2D     24
     100      13       1       1       0       0      23       001010000D     25
     100       0      -9       1       0                     ARC       2D     26
     124      14       1       1       0       0       0       001000000D     27
     124       0       0       1       0                   XFORM       3D     28
     100      15       1       1       0       0      27       001010000D     29
     100       0      -9       1       0                     ARC       3D     30
     124      16       1       1       0       0       0       001000000D     31
     124       0       0       1       0                   XFORM       4D     32
     100      17       1       1       0       0      31       001010000D     33
     100       0      -9       1       0                     ARC       4D     34
     110      18       1       1       0       0       0       001010000D     35
     110       0      -9       1       0                    LINE       1D     36
     110      19       1       1       0       0       0       001010000D     37
     110       0      -9       1       0                    LINE       2D     38
     124      20       1       1       0       0       0       001000000D     39
     124       0       0       1       0                   XFORM       5D     40
     100      21       1       1       0       0      39       001010000D     41
     100       0      -9       1       0                     ARC       5D     42
     124      22       1       1       0       0       0       001000000D     43
     124       0       0       1       0                   XFORM       6D     44
     100      23       1       1       0       0      43       001010000D     45
     100       0      -9       1       0                     ARC       6D     46
     124      24       1       1       0       0       0       001000000D     47
     124       0       0       1       0                   XFORM       7D     48
     100      25       1       1       0       0      47       001010000D     49
     100       0      -9       1       0                     ARC       7D     50
     124      26       1       1       0       0       0       001000000D     51
     124       0       0       1       0                   XFORM       8D     52
     100      27       1       1       0       0      51       001010000D     53
     100       0      -9       1       0                     ARC       8D     54
     110      28       1       1       0       0       0       001010000D     55
     110       0      -9       1       0                    LINE       3D     56
     110      29       1       1       0       0       0       001010000D     57
     110       0      -9       1       0                    LINE       4D     58
     502      30       1       1       0       0       0       001010000D     59
     502       0      -9       3       1                  VERTEX       1D     60
     504      33       1       1       0       0       0       000010001D     61
     504       0      -9       3       1                    EDGE       1D     62
     128      36       1       1       0       0       0       001010000D     63
     128       0      -9       4       0                  SPLSRF       1D     64
     508      40       1       1       0       0       0       001010000D     65
     508       0       0       1       1                EDGELOOP       1D     66
     508      41       1       1       0       0       0       001010000D     67
     508       0       0       1       1                EDGELOOP       2D     68
     510      42       1       1       0       0       0       000010000D     69
     510       0      -9       1       1                    FACE       1D     70
     110      43       1       1       0       0       0       001010000D     71
     110       0      -9       1       0                    LINE       5D     72
     110      44       1       1       0       0       0       001010000D     73
     110       0      -9       1       0                    LINE       6D     74
     120      45       1       1       0       0       0       001010000D     75
     120       0      -9       1       0                    SREV       1D     76
     508      46       1       1       0       0       0       001010000D     77
     508       0       0       1       1                EDGELOOP       3D     78
     510      47       1       1       0       0       0       000010000D     79
     510       0      -9       1       1                    FACE       2D     80
     110      48       1       1       0       0       0       001010000D     81
     110       0      -9       1       0                    LINE       7D     82
     110      49       1       1       0       0       0       001010000D     83
     110       0      -9       1       0                    LINE       8D     84
     120      50       1       1       0       0       0       001010000D     85
     120       0      -9       1       0                    SREV       2D     86
     508      51       1       1       0       0       0       001010000D     87
     508       0       0       1       1                EDGELOOP       4D     88
     510      52       1       1       0       0       0       000010000D     89
     510       0      -9       1       1                    FACE       3D     90
     128      53       1       1       0       0       0       001010000D     91
     128       0      -9       4       0                  SPLSRF       2D     92
     508      57       1       1       0       0       0       001010000D     93
     508       0       0       1       1                EDGELOOP       5D     94
     508      58       1       1       0       0       0       001010000D     95
     508       0       0       1       1                EDGELOOP       6D     96
     510      59       1       1       0       0       0       000010000D     97
     510       0      -9       1       1                    FACE       4D     98
     110      60       1       1       0       0       0       001010000D     99
     110       0      -9       1       0                    LINE       9D    100
     110      61       1       1       0       0       0       001010000D    101
     110       0      -9       1       0                    LINE      10D    102
     120      62       1       1       0       0       0       001010000D    103
     120       0      -9       1       0                    SREV       3D    104
     508      63       1       1       0       0       0       001010000D    105
     508       0       0       1       1                EDGELOOP       7D    106
     510      64       1       1       0       0       0       000010000D    107
     510       0      -9       1       1                    FACE       5D    108
     110      65       1       1       0       0       0       001010000D    109
     110       0      -9       1       0                    LINE      11D    110
     110      66       1       1       0       0       0       001010000D    111
     110       0      -9       1       0                    LINE      12D    112
     120      67       1       1       0       0       0       001010000D    113
     120       0      -9       1       0                    SREV       4D    114
     508      68       1       1       0       0       0       001010000D    115
     508       0       0       1       1                EDGELOOP       8D    116
     510      69       1       1       0       0       0       000010000D    117
     510       0      -9       1       1                    FACE       6D    118
     514      70       1       1       0       0       0       000000000D    119
     514       0      -9       1       1                   SHELL       1D    120
     186      71       1       1       0       0       0       000000000D    121
     186       0      -9       1       0                    MSBR       1D    122
314,1.1D0,1.2D0,1D2;                                                   1P      1
314,1.1D1,1.1D1,1.1D1;                                                 3P      2
314,3.92D1,1.2D0,1.2D0;                                                5P      3
314,4.1D1,0D0,2.2D1;                                                   7P      4
314,5.49D1,7.49D1,8.47D1;                                              9P      5
314,8.784D1,9.49D1,1D2;                                               11P      6
314,9.6D1,9.6D1,9.6D1;                                                13P      7
314,9.8D1,6.27D1,0D0;                                                 15P      8
314,1D2,1D2,9.49D1;                                                   17P      9
124,1D0,0D0,0D0,0D0,0D0,0D0,-1D0,-6D-1,0D0,1D0,0D0,0D0;               19P     10
100,0D0,0D0,0D0,1.35D1,0D0,-1.35D1,0D0;                               21P     11
124,-1D0,0D0,0D0,0D0,0D0,0D0,-1D0,-6D-1,0D0,-1D0,0D0,0D0;             23P     12
100,0D0,0D0,0D0,1.35D1,0D0,-1.35D1,0D0;                               25P     13
124,1D0,0D0,0D0,0D0,0D0,0D0,1D0,-6D-1,0D0,-1D0,0D0,0D0;               27P     14
100,0D0,0D0,0D0,1.1D1,0D0,-1.1D1,0D0;                                 29P     15
124,-1D0,0D0,0D0,0D0,0D0,0D0,1D0,-6D-1,0D0,1D0,0D0,0D0;               31P     16
100,0D0,0D0,0D0,1.1D1,0D0,-1.1D1,0D0;                                 33P     17
110,1.35D1,-6D-1,0D0,1.35D1,6D-1,0D0;                                 35P     18
110,-1.35D1,-6D-1,0D0,-1.35D1,6D-1,0D0;                               37P     19
124,1D0,0D0,0D0,0D0,0D0,0D0,-1D0,6D-1,0D0,1D0,0D0,0D0;                39P     20
100,0D0,0D0,0D0,1.35D1,0D0,-1.35D1,0D0;                               41P     21
124,-1D0,0D0,0D0,0D0,0D0,0D0,-1D0,6D-1,0D0,-1D0,0D0,0D0;              43P     22
100,0D0,0D0,0D0,1.35D1,0D0,-1.35D1,0D0;                               45P     23
124,1D0,0D0,0D0,0D0,0D0,0D0,1D0,6D-1,0D0,-1D0,0D0,0D0;                47P     24
100,0D0,0D0,0D0,1.1D1,0D0,-1.1D1,0D0;                                 49P     25
124,-1D0,0D0,0D0,0D0,0D0,0D0,1D0,6D-1,0D0,1D0,0D0,0D0;                51P     26
100,0D0,0D0,0D0,1.1D1,0D0,-1.1D1,0D0;                                 53P     27
110,1.1D1,-6D-1,0D0,1.1D1,6D-1,0D0;                                   55P     28
110,-1.1D1,-6D-1,0D0,-1.1D1,6D-1,0D0;                                 57P     29
502,8,1.35D1,-6D-1,0D0,-1.35D1,-6D-1,0D0,1.35D1,6D-1,0D0,             59P     30
-1.35D1,6D-1,0D0,1.1D1,-6D-1,0D0,-1.1D1,-6D-1,0D0,1.1D1,6D-1,         59P     31
0D0,-1.1D1,6D-1,0D0;                                                  59P     32
504,12,21,59,1,59,2,25,59,2,59,1,41,59,3,59,4,45,59,4,59,3,35,        61P     33
59,1,59,3,37,59,2,59,4,29,59,5,59,6,33,59,6,59,5,49,59,7,59,8,        61P     34
53,59,8,59,7,55,59,5,59,7,57,59,6,59,8;                               61P     35
128,1,1,1,1,0,0,1,0,0,-1.404D1,-1.404D1,1.404D1,1.404D1,              63P     36
-1.404D1,-1.404D1,1.404D1,1.404D1,1D0,1D0,1D0,1D0,-1.404D1,           63P     37
-6D-1,-1.404D1,1.404D1,-6D-1,-1.404D1,-1.404D1,-6D-1,1.404D1,         63P     38
1.404D1,-6D-1,1.404D1,-1.404D1,1.404D1,-1.404D1,1.404D1;              63P     39
508,2,0,61,1,0,0,0,61,2,0,0;                                          65P     40
508,2,0,61,7,0,0,0,61,8,0,0;                                          67P     41
510,63,2,0,65,67;                                                     69P     42
110,0D0,-6D-1,0D0,0D0,-1.6D0,0D0;                                     71P     43
110,1.35D1,6.458431412536D-1,0D0,1.35D1,-6.458431412536D-1,0D0;       73P     44
120,71,73,-6.283185307180D-2,3.204424506662D0;                        75P     45
508,4,0,61,1,1,0,0,61,6,1,0,0,61,3,0,0,0,61,5,0,0;                    77P     46
510,75,1,0,77;                                                        79P     47
110,0D0,-6D-1,0D0,0D0,-1.6D0,0D0;                                     81P     48
110,1.35D1,6.458431412536D-1,0D0,1.35D1,-6.458431412536D-1,0D0;       83P     49
120,81,83,3.078760800518D0,6.346017160251D0;                          85P     50
508,4,0,61,2,1,0,0,61,5,1,0,0,61,4,0,0,0,61,6,0,0;                    87P     51
510,85,1,0,87;                                                        89P     52
128,1,1,1,1,0,0,1,0,0,-1.404D1,-1.404D1,1.404D1,1.404D1,              91P     53
-1.404D1,-1.404D1,1.404D1,1.404D1,1D0,1D0,1D0,1D0,-1.404D1,6D-1,      91P     54
-1.404D1,1.404D1,6D-1,-1.404D1,-1.404D1,6D-1,1.404D1,1.404D1,         91P     55
6D-1,1.404D1,-1.404D1,1.404D1,-1.404D1,1.404D1;                       91P     56
508,2,0,61,3,1,0,0,61,4,1,0;                                          93P     57
508,2,0,61,9,1,0,0,61,10,1,0;                                         95P     58
510,91,2,0,93,95;                                                     97P     59
110,0D0,-6D-1,0D0,0D0,-1.6D0,0D0;                                     99P     60
110,1.1D1,6.458431412536D-1,0D0,1.1D1,-6.458431412536D-1,0D0;        101P     61
120,99,101,3.078760800518D0,6.346017160251D0;                        103P     62
508,4,0,61,7,1,0,0,61,12,1,0,0,61,9,0,0,0,61,11,0,0;                 105P     63
510,103,1,0,105;                                                     107P     64
110,0D0,-6D-1,0D0,0D0,-1.6D0,0D0;                                    109P     65
110,1.1D1,6.458431412536D-1,0D0,1.1D1,-6.458431412536D-1,0D0;        111P     66
120,109,111,-6.283185307180D-2,3.204424506662D0;                     113P     67
508,4,0,61,8,1,0,0,61,11,1,0,0,61,10,0,0,0,61,12,0,0;                115P     68
510,113,1,0,115;                                                     117P     69
514,6,69,1,79,1,89,1,97,0,107,0,117,0;                               119P     70
186,119,1,0;                                                         121P     71
S      1G      4D    122P     71                                        T      1
