 PTC IGES file: mice5-009_mir_mir.igs                                   S      1
1H,,1H;,17HMICE5-009_MIR_MIR,21Hmice5-009_mir_mir.igs,                  G      1
49HPro/ENGINEER by Parametric Technology Corporation,7H2004110,32,38,7, G      2
38,15,17HMICE5-009_MIR_MIR,1.,2,2HMM,32768,0.5,13H080428.080948,        G      3
0.00941202, 94.124,10Hliuxiaokun,7HUnknown,10,0,13H080428.080948;       G      4
     314       1       1       1       0       0       0       001000200D      1
     314       0       4       1       0                   COLOR       1D      2
     314       2       1       1       0       0       0       001000200D      3
     314       0       1       1       0                   COLOR       2D      4
     314       3       1       1       0       0       0       001000200D      5
     314       0       1       1       0                   COLOR       3D      6
     314       4       1       1       0       0       0       001000200D      7
     314       0       1       1       0                   COLOR       4D      8
     314       5       1       1       0       0       0       001000200D      9
     314       0       8       1       0                   COLOR       5D     10
     314       6       1       1       0       0       0       001000200D     11
     314       0       8       1       0                   COLOR       6D     12
     314       7       1       1       0       0       0       001000200D     13
     314       0       5       1       0                   COLOR       7D     14
     314       8       1       1       0       0       0       001000200D     15
     314       0       8       1       0                   COLOR       8D     16
     314       9       1       1       0       0       0       001000200D     17
     314       0       8       1       0                   COLOR       9D     18
     124      10       1       1       0       0       0       001000000D     19
     124       0       0       1       0                   XFORM       1D     20
     100      11       1       1       0       0      19       001010000D     21
     100       0     -15       1       0                     ARC       1D     22
     124      12       1       1       0       0       0       001000000D     23
     124       0       0       1       0                   XFORM       2D     24
     100      13       1       1       0       0      23       001010000D     25
     100       0     -15       1       0                     ARC       2D     26
     124      14       1       1       0       0       0       001000000D     27
     124       0       0       1       0                   XFORM       3D     28
     100      15       1       1       0       0      27       001010000D     29
     100       0     -15       1       0                     ARC       3D     30
     124      16       1       1       0       0       0       001000000D     31
     124       0       0       1       0                   XFORM       4D     32
     100      17       1       1       0       0      31       001010000D     33
     100       0     -15       1       0                     ARC       4D     34
     124      18       1       1       0       0       0       001000000D     35
     124       0       0       1       0                   XFORM       5D     36
     100      19       1       1       0       0      35       001010000D     37
     100       0     -15       1       0                     ARC       5D     38
     110      20       1       1       0       0       0       001010000D     39
     110       0     -15       2       0                    LINE       1D     40
     124      22       1       1       0       0       0       001000000D     41
     124       0       0       1       0                   XFORM       6D     42
     100      23       1       1       0       0      41       001010000D     43
     100       0     -15       1       0                     ARC       6D     44
     124      24       1       1       0       0       0       001000000D     45
     124       0       0       1       0                   XFORM       7D     46
     100      25       1       1       0       0      45       001010000D     47
     100       0     -15       1       0                     ARC       7D     48
     110      26       1       1       0       0       0       001010000D     49
     110       0     -15       2       0                    LINE       2D     50
     124      28       1       1       0       0       0       001000000D     51
     124       0       0       1       0                   XFORM       8D     52
     100      29       1       1       0       0      51       001010000D     53
     100       0     -15       1       0                     ARC       8D     54
     124      30       1       1       0       0       0       001000000D     55
     124       0       0       1       0                   XFORM       9D     56
     100      31       1       1       0       0      55       001010000D     57
     100       0     -15       1       0                     ARC       9D     58
     124      32       1       1       0       0       0       001000000D     59
     124       0       0       1       0                   XFORM      10D     60
     100      33       1       1       0       0      59       001010000D     61
     100       0     -15       1       0                     ARC      10D     62
     124      34       1       1       0       0       0       001000000D     63
     124       0       0       1       0                   XFORM      11D     64
     100      35       1       1       0       0      63       001010000D     65
     100       0     -15       1       0                     ARC      11D     66
     124      36       1       1       0       0       0       001000000D     67
     124       0       0       1       0                   XFORM      12D     68
     100      37       1       1       0       0      67       001010000D     69
     100       0     -15       1       0                     ARC      12D     70
     502      38       1       1       0       0       0       001010000D     71
     502       0     -15       4       1                  VERTEX       1D     72
     504      42       1       1       0       0       0       000010001D     73
     504       0     -15       4       1                    EDGE       1D     74
     128      46       1       1       0       0       0       001010000D     75
     128       0     -15       6       0                  SPLSRF       1D     76
     508      52       1       1       0       0       0       001010000D     77
     508       0       0       1       1                EDGELOOP       1D     78
     510      53       1       1       0       0       0       000010000D     79
     510       0     -15       1       1                    FACE       1D     80
     110      54       1       1       0       0       0       001010000D     81
     110       0     -15       1       0                    LINE       3D     82
     124      55       1       1       0       0       0       001000000D     83
     124       0       0       4       0                   XFORM      13D     84
     100      59       1       1       0       0      83       001010000D     85
     100       0     -15       1       0                     ARC      13D     86
     120      60       1       1       0       0       0       001010000D     87
     120       0     -15       1       0                    SREV       1D     88
     508      61       1       1       0       0       0       001010000D     89
     508       0       0       1       1                EDGELOOP       2D     90
     510      62       1       1       0       0       0       000010000D     91
     510       0     -15       1       1                    FACE       2D     92
     110      63       1       1       0       0       0       001010000D     93
     110       0     -15       1       0                    LINE       4D     94
     124      64       1       1       0       0       0       001000000D     95
     124       0       0       4       0                   XFORM      14D     96
     100      68       1       1       0       0      95       001010000D     97
     100       0     -15       1       0                     ARC      14D     98
     120      69       1       1       0       0       0       001010000D     99
     120       0     -15       1       0                    SREV       2D    100
     508      70       1       1       0       0       0       001010000D    101
     508       0       0       1       1                EDGELOOP       3D    102
     510      71       1       1       0       0       0       000010000D    103
     510       0     -15       1       1                    FACE       3D    104
     110      72       1       1       0       0       0       001010000D    105
     110       0     -15       1       0                    LINE       5D    106
     110      73       1       1       0       0       0       001010000D    107
     110       0     -15       1       0                    LINE       6D    108
     120      74       1       1       0       0       0       001010000D    109
     120       0     -15       1       0                    SREV       3D    110
     508      75       1       1       0       0       0       001010000D    111
     508       0       0       1       1                EDGELOOP       4D    112
     510      76       1       1       0       0       0       000010000D    113
     510       0     -15       1       1                    FACE       4D    114
     110      77       1       1       0       0       0       001010000D    115
     110       0     -15       1       0                    LINE       7D    116
     110      78       1       1       0       0       0       001010000D    117
     110       0     -15       1       0                    LINE       8D    118
     120      79       1       1       0       0       0       001010000D    119
     120       0     -15       1       0                    SREV       4D    120
     508      80       1       1       0       0       0       001010000D    121
     508       0       0       1       1                EDGELOOP       5D    122
     510      81       1       1       0       0       0       000010000D    123
     510       0     -15       1       1                    FACE       5D    124
     110      82       1       1       0       0       0       001010000D    125
     110       0     -15       1       0                    LINE       9D    126
     124      83       1       1       0       0       0       001000000D    127
     124       0       0       4       0                   XFORM      15D    128
     100      87       1       1       0       0     127       001010000D    129
     100       0     -15       1       0                     ARC      15D    130
     120      88       1       1       0       0       0       001010000D    131
     120       0     -15       1       0                    SREV       5D    132
     508      89       1       1       0       0       0       001010000D    133
     508       0       0       1       1                EDGELOOP       6D    134
     510      90       1       1       0       0       0       000010000D    135
     510       0     -15       1       1                    FACE       6D    136
     128      91       1       1       0       0       0       001010000D    137
     128       0     -15       6       0                  SPLSRF       2D    138
     508      97       1       1       0       0       0       001010000D    139
     508       0       0       1       1                EDGELOOP       7D    140
     510      98       1       1       0       0       0       000010000D    141
     510       0     -15       1       1                    FACE       7D    142
     110      99       1       1       0       0       0       001010000D    143
     110       0     -15       1       0                    LINE      10D    144
     124     100       1       1       0       0       0       001000000D    145
     124       0       0       4       0                   XFORM      16D    146
     100     104       1       1       0       0     145       001010000D    147
     100       0     -15       1       0                     ARC      16D    148
     120     105       1       1       0       0       0       001010000D    149
     120       0     -15       1       0                    SREV       6D    150
     508     106       1       1       0       0       0       001010000D    151
     508       0       0       1       1                EDGELOOP       8D    152
     510     107       1       1       0       0       0       000010000D    153
     510       0     -15       1       1                    FACE       8D    154
     514     108       1       1       0       0       0       000000000D    155
     514       0     -15       1       1                   SHELL       1D    156
     186     109       1       1       0       0       0       000000000D    157
     186       0     -15       1       0                    MSBR       1D    158
314,1.1D0,1.2D0,1D2;                                                   1P      1
314,1.1D1,1.1D1,1.1D1;                                                 3P      2
314,3.92D1,1.2D0,1.2D0;                                                5P      3
314,4.1D1,0D0,2.2D1;                                                   7P      4
314,8.784D1,9.49D1,1D2;                                                9P      5
314,9.6D1,9.6D1,9.6D1;                                                11P      6
314,9.8D1,6.27D1,0D0;                                                 13P      7
314,9.9D1,1D2,1D2;                                                    15P      8
314,1D2,1D2,9.49D1;                                                   17P      9
124,1D0,0D0,0D0,0D0,0D0,0D0,-1D0,-4.35D1,0D0,1D0,0D0,0D0;             19P     10
100,0D0,0D0,0D0,1.189999888143D1,0D0,-1.189999888143D1,0D0;           21P     11
124,-1D0,0D0,0D0,0D0,0D0,0D0,-1D0,-4.35D1,0D0,-1D0,0D0,0D0;           23P     12
100,0D0,0D0,0D0,1.189999888143D1,0D0,-1.189999888143D1,0D0;           25P     13
124,0D0,1D0,0D0,1.19D1,-1D0,0D0,0D0,-4.27D1,0D0,0D0,1D0,0D0;          27P     14
100,0D0,0D0,0D0,8D-1,0D0,0D0,8D-1;                                    29P     15
124,0D0,-1D0,0D0,-1.19D1,-1D0,0D0,0D0,-4.27D1,0D0,0D0,-1D0,0D0;       31P     16
100,0D0,0D0,0D0,8D-1,0D0,0D0,8D-1;                                    33P     17
124,-1D0,0D0,0D0,0D0,0D0,0D0,-1D0,-4.27D1,0D0,-1D0,0D0,0D0;           35P     18
100,0D0,0D0,0D0,1.27D1,0D0,-1.27D1,0D0;                               37P     19
110,1.27D1,-4.27D1,-2.987838439389D-12,1.27D1,4.27D1,                 39P     20
1.216576154867D-12;                                                   39P     21
124,1D0,0D0,0D0,0D0,0D0,0D0,1D0,4.27D1,0D0,-1D0,0D0,0D0;              41P     22
100,0D0,0D0,0D0,1.27D1,0D0,-1.27D1,0D0;                               43P     23
124,1D0,0D0,0D0,0D0,0D0,0D0,-1D0,-4.27D1,0D0,1D0,0D0,0D0;             45P     24
100,0D0,0D0,0D0,1.27D1,0D0,-1.27D1,0D0;                               47P     25
110,-1.27D1,-4.27D1,2.988206435225D-12,-1.27D1,4.27D1,                49P     26
-1.216888170633D-12;                                                  49P     27
124,-1D0,0D0,0D0,0D0,0D0,0D0,1D0,4.27D1,0D0,1D0,0D0,0D0;              51P     28
100,0D0,0D0,0D0,1.27D1,0D0,-1.27D1,0D0;                               53P     29
124,0D0,-1D0,0D0,-1.19D1,1D0,0D0,0D0,4.27D1,0D0,0D0,1D0,0D0;          55P     30
100,0D0,0D0,0D0,8D-1,0D0,0D0,8D-1;                                    57P     31
124,-1D0,0D0,0D0,0D0,0D0,0D0,1D0,4.35D1,0D0,1D0,0D0,0D0;              59P     32
100,0D0,0D0,0D0,1.189999888137D1,0D0,-1.189999888137D1,0D0;           61P     33
124,1D0,0D0,0D0,0D0,0D0,0D0,1D0,4.35D1,0D0,-1D0,0D0,0D0;              63P     34
100,0D0,0D0,0D0,1.189999888137D1,0D0,-1.189999888137D1,0D0;           65P     35
124,0D0,1D0,0D0,1.19D1,1D0,0D0,0D0,4.27D1,0D0,0D0,-1D0,0D0;           67P     36
100,0D0,0D0,0D0,8D-1,0D0,0D0,8D-1;                                    69P     37
502,8,1.189999888143D1,-4.35D1,0D0,-1.189999888143D1,-4.35D1,         71P     38
0D0,1.27D1,-4.27D1,0D0,-1.27D1,-4.27D1,0D0,-1.189999888137D1,         71P     39
4.35D1,0D0,1.189999888137D1,4.35D1,0D0,-1.27D1,4.27D1,0D0,            71P     40
1.27D1,4.27D1,0D0;                                                    71P     41
504,14,21,71,1,71,2,47,71,3,71,4,25,71,2,71,1,37,71,4,71,3,61,        73P     42
71,5,71,6,53,71,7,71,8,65,71,6,71,5,43,71,8,71,7,33,71,2,71,4,        73P     43
29,71,1,71,3,69,71,6,71,8,57,71,5,71,7,39,71,3,71,8,49,71,4,71,       73P     44
7;                                                                    73P     45
128,1,1,1,1,0,0,1,0,0,-1.2376D1,-1.2376D1,1.2376D1,1.2376D1,          75P     46
-1.238771416029D1,-1.238771416029D1,1.238771416029D1,                 75P     47
1.238771416029D1,1D0,1D0,1D0,1D0,-1.2376D1,-4.35D1,                   75P     48
1.238771416029D1,1.2376D1,-4.35D1,1.238771416029D1,-1.2376D1,         75P     49
-4.35D1,-1.238771416029D1,1.2376D1,-4.35D1,-1.238771416029D1,         75P     50
-1.2376D1,1.2376D1,-1.238771416029D1,1.238771416029D1;                75P     51
508,2,0,73,1,0,0,0,73,3,0,0;                                          77P     52
510,75,1,0,77;                                                        79P     53
110,0D0,-4.27D1,0D0,0D0,-4.17D1,0D0;                                  81P     54
124,-1.407033032454D-1,9.899194612642D-1,1.618767019153D-2,           83P     55
1.189844075588D1,-9.900491863373D-1,-1.407217418629D-1,0D0,           83P     56
-4.27D1,2.277957146055D-3,-1.602658970182D-2,9.998689710826D-1,       83P     57
-1.926332752792D-1;                                                   83P     58
100,0D0,0D0,0D0,8D-1,0D0,-2.229109086645D-1,7.683168140802D-1;        85P     59
120,81,85,-3.220612883912D0,4.664347582607D-2;                        87P     60
508,4,0,73,1,1,0,0,73,9,1,0,0,73,2,0,0,0,73,10,0,0;                   89P     61
510,87,1,0,89;                                                        91P     62
110,0D0,-4.27D1,0D0,0D0,-4.17D1,0D0;                                  93P     63
124,1.407033032454D-1,-9.899194612642D-1,-1.618767019153D-2,          95P     64
-1.189844075588D1,-9.900491863373D-1,-1.407217418629D-1,0D0,          95P     65
-4.27D1,-2.277957146055D-3,1.602658970182D-2,-9.998689710826D-1,      95P     66
1.926332752792D-1;                                                    95P     67
100,0D0,0D0,0D0,8D-1,0D0,-2.229109086645D-1,7.683168140802D-1;        97P     68
120,93,97,-3.220612883912D0,4.664347582607D-2;                        99P     69
508,4,0,73,3,1,0,0,73,10,1,0,0,73,4,0,0,0,73,9,0,0;                  101P     70
510,99,1,0,101;                                                      103P     71
110,0D0,-4.35D1,0D0,0D0,-4.25D1,0D0;                                 105P     72
110,1.27D1,-4.4408D1,0D0,1.27D1,4.4408D1,0D0;                        107P     73
120,105,107,-6.283185307180D-2,3.204424506662D0;                     109P     74
508,4,0,73,4,1,0,0,73,13,1,0,0,73,8,1,0,0,73,14,0,0;                 111P     75
510,109,1,0,111;                                                     113P     76
110,0D0,-4.35D1,0D0,0D0,-4.25D1,0D0;                                 115P     77
110,1.27D1,-4.4408D1,0D0,1.27D1,4.4408D1,0D0;                        117P     78
120,115,117,3.078760800518D0,6.346017160251D0;                       119P     79
508,4,0,73,2,1,0,0,73,14,1,0,0,73,6,1,0,0,73,13,0,0;                 121P     80
510,119,1,0,121;                                                     123P     81
110,0D0,4.27D1,0D0,0D0,4.37D1,0D0;                                   125P     82
124,-9.899855245515D-1,-1.407082172224D-1,1.139555986722D-2,         127P     83
-1.189922731515D1,-1.407173542113D-1,9.900498099711D-1,0D0,          127P     84
4.27D1,-1.128217188106D-2,-1.603553034272D-3,-9.999350684996D-1,     127P     85
-1.356071624199D-1;                                                  127P     86
100,0D0,0D0,0D0,8D-1,0D0,-2.229109086943D-1,7.683168140716D-1;       129P     87
120,125,129,-5.143604655494D-2,3.215820313184D0;                     131P     88
508,4,0,73,5,1,0,0,73,11,1,0,0,73,6,0,0,0,73,12,0,0;                 133P     89
510,131,1,0,133;                                                     135P     90
128,1,1,1,1,0,0,1,0,0,-1.2376D1,-1.2376D1,1.2376D1,1.2376D1,         137P     91
-1.238771416029D1,-1.238771416029D1,1.238771416029D1,                137P     92
1.238771416029D1,1D0,1D0,1D0,1D0,-1.2376D1,4.35D1,                   137P     93
1.238771416029D1,1.2376D1,4.35D1,1.238771416029D1,-1.2376D1,         137P     94
4.35D1,-1.238771416029D1,1.2376D1,4.35D1,-1.238771416029D1,          137P     95
-1.2376D1,1.2376D1,-1.238771416029D1,1.238771416029D1;               137P     96
508,2,0,73,5,0,0,0,73,7,0,0;                                         139P     97
510,137,1,0,139;                                                     141P     98
110,0D0,4.27D1,0D0,0D0,4.37D1,0D0;                                   143P     99
124,9.899855245515D-1,1.407082172224D-1,-1.139555986722D-2,          145P    100
1.189922731515D1,-1.407173542113D-1,9.900498099711D-1,0D0,           145P    101
4.27D1,1.128217188106D-2,1.603553034272D-3,9.999350684996D-1,        145P    102
1.356071624199D-1;                                                   145P    103
100,0D0,0D0,0D0,8D-1,0D0,-2.229109086943D-1,7.683168140716D-1;       147P    104
120,143,147,-5.143604655494D-2,3.215820313184D0;                     149P    105
508,4,0,73,7,1,0,0,73,12,1,0,0,73,8,0,0,0,73,11,0,0;                 151P    106
510,149,1,0,151;                                                     153P    107
514,8,79,0,91,1,103,1,113,1,123,1,135,1,141,1,153,1;                 155P    108
186,155,1,0;                                                         157P    109
S      1G      4D    158P    109                                        T      1
