 PTC IGES file: mice5-001.igs                                           S      1
1H,,1H;,9HMICE5-001,13Hmice5-001.igs,                                   G      1
49HPro/ENGINEER by Parametric Technology Corporation,7H2004110,32,38,7, G      2
38,15,9HMICE5-001,1.,2,2HMM,32768,0.5,13H080428.080945,0.293159,        G      3
2931.71,10Hliuxiaokun,7HUnknown,10,0,13H080428.080945;                  G      4
     314       1       1       1       0       0       0       001000200D      1
     314       0       4       1       0                   COLOR       1D      2
     314       2       1       1       0       0       0       001000200D      3
     314       0       1       1       0                   COLOR       2D      4
     314       3       1       1       0       0       0       001000200D      5
     314       0       1       1       0                   COLOR       3D      6
     314       4       1       1       0       0       0       001000200D      7
     314       0       1       1       0                   COLOR       4D      8
     314       5       1       1       0       0       0       001000200D      9
     314       0       6       1       0                   COLOR       5D     10
     314       6       1       1       0       0       0       001000200D     11
     314       0       8       1       0                   COLOR       6D     12
     314       7       1       1       0       0       0       001000200D     13
     314       0       8       1       0                   COLOR       7D     14
     314       8       1       1       0       0       0       001000200D     15
     314       0       5       1       0                   COLOR       8D     16
     314       9       1       1       0       0       0       001000200D     17
     314       0       8       1       0                   COLOR       9D     18
     124      10       1       1       0       0       0       001000000D     19
     124       0       0       2       0                   XFORM       1D     20
     100      12       1       1       0       0      19       001010000D     21
     100       0      -9       1       0                     ARC       1D     22
     110      13       1       1       0       0       0       001010000D     23
     110       0      -9       2       0                    LINE       1D     24
     124      15       1       1       0       0       0       001000000D     25
     124       0       0       2       0                   XFORM       2D     26
     100      17       1       1       0       0      25       001010000D     27
     100       0      -9       1       0                     ARC       2D     28
     110      18       1       1       0       0       0       001010000D     29
     110       0      -9       2       0                    LINE       2D     30
     110      20       1       1       0       0       0       001010000D     31
     110       0      -9       2       0                    LINE       3D     32
     110      22       1       1       0       0       0       001010000D     33
     110       0      -9       2       0                    LINE       4D     34
     110      24       1       1       0       0       0       001010000D     35
     110       0      -9       2       0                    LINE       5D     36
     110      26       1       1       0       0       0       001010000D     37
     110       0      -9       2       0                    LINE       6D     38
     124      28       1       1       0       0       0       001000000D     39
     124       0       0       2       0                   XFORM       3D     40
     100      30       1       1       0       0      39       001010000D     41
     100       0      -9       1       0                     ARC       3D     42
     110      31       1       1       0       0       0       001010000D     43
     110       0      -9       2       0                    LINE       7D     44
     124      33       1       1       0       0       0       001000000D     45
     124       0       0       2       0                   XFORM       4D     46
     100      35       1       1       0       0      45       001010000D     47
     100       0      -9       1       0                     ARC       4D     48
     110      36       1       1       0       0       0       001010000D     49
     110       0      -9       2       0                    LINE       8D     50
     110      38       1       1       0       0       0       001010000D     51
     110       0      -9       2       0                    LINE       9D     52
     110      40       1       1       0       0       0       001010000D     53
     110       0      -9       2       0                    LINE      10D     54
     124      42       1       1       0       0       0       001000000D     55
     124       0       0       2       0                   XFORM       5D     56
     100      44       1       1       0       0      55       001010000D     57
     100       0      -9       1       0                     ARC       5D     58
     110      45       1       1       0       0       0       001010000D     59
     110       0      -9       2       0                    LINE      11D     60
     124      47       1       1       0       0       0       001000000D     61
     124       0       0       2       0                   XFORM       6D     62
     100      49       1       1       0       0      61       001010000D     63
     100       0      -9       1       0                     ARC       6D     64
     110      50       1       1       0       0       0       001010000D     65
     110       0      -9       2       0                    LINE      12D     66
     110      52       1       1       0       0       0       001010000D     67
     110       0      -9       2       0                    LINE      13D     68
     110      54       1       1       0       0       0       001010000D     69
     110       0      -9       2       0                    LINE      14D     70
     124      56       1       1       0       0       0       001000000D     71
     124       0       0       2       0                   XFORM       7D     72
     100      58       1       1       0       0      71       001010000D     73
     100       0      -9       1       0                     ARC       7D     74
     110      59       1       1       0       0       0       001010000D     75
     110       0      -9       2       0                    LINE      15D     76
     124      61       1       1       0       0       0       001000000D     77
     124       0       0       2       0                   XFORM       8D     78
     100      63       1       1       0       0      77       001010000D     79
     100       0      -9       1       0                     ARC       8D     80
     110      64       1       1       0       0       0       001010000D     81
     110       0      -9       2       0                    LINE      16D     82
     502      66       1       1       0       0       0       001010000D     83
     502       0      -9      12       1                  VERTEX       1D     84
     504      78       1       1       0       0       0       000010001D     85
     504       0      -9       6       1                    EDGE       1D     86
     110      84       1       1       0       0       0       001010000D     87
     110       0      -9       1       0                    LINE      17D     88
     110      85       1       1       0       0       0       001010000D     89
     110       0      -9       1       0                    LINE      18D     90
     120      86       1       1       0       0       0       001010000D     91
     120       0      -9       1       0                    SREV       1D     92
     508      87       1       1       0       0       0       001010000D     93
     508       0       0       1       1                EDGELOOP       1D     94
     510      88       1       1       0       0       0       000010000D     95
     510       0      -9       1       1                    FACE       1D     96
     128      89       1       1       0       0       0       001010000D     97
     128       0      -9       8       0                  SPLSRF       1D     98
     508      97       1       1       0       0       0       001010000D     99
     508       0       0       1       1                EDGELOOP       2D    100
     510      98       1       1       0       0       0       000010000D    101
     510       0      -9       1       1                    FACE       2D    102
     128      99       1       1       0       0       0       001010000D    103
     128       0      -9       6       0                  SPLSRF       2D    104
     508     105       1       1       0       0       0       001010000D    105
     508       0       0       1       1                EDGELOOP       3D    106
     508     106       1       1       0       0       0       001010000D    107
     508       0       0       1       1                EDGELOOP       4D    108
     510     107       1       1       0       0       0       000010000D    109
     510       0      -9       1       1                    FACE       3D    110
     128     108       1       1       0       0       0       001010000D    111
     128       0      -9       8       0                  SPLSRF       3D    112
     508     116       1       1       0       0       0       001010000D    113
     508       0       0       1       1                EDGELOOP       5D    114
     510     117       1       1       0       0       0       000010000D    115
     510       0      -9       1       1                    FACE       4D    116
     128     118       1       1       0       0       0       001010000D    117
     128       0      -9       7       0                  SPLSRF       4D    118
     508     125       1       1       0       0       0       001010000D    119
     508       0       0       1       1                EDGELOOP       6D    120
     508     126       1       1       0       0       0       001010000D    121
     508       0       0       1       1                EDGELOOP       7D    122
     510     127       1       1       0       0       0       000010000D    123
     510       0      -9       1       1                    FACE       5D    124
     110     128       1       1       0       0       0       001010000D    125
     110       0      -9       1       0                    LINE      19D    126
     110     129       1       1       0       0       0       001010000D    127
     110       0      -9       1       0                    LINE      20D    128
     120     130       1       1       0       0       0       001010000D    129
     120       0      -9       1       0                    SREV       2D    130
     508     131       1       1       0       0       0       001010000D    131
     508       0       0       1       1                EDGELOOP       8D    132
     510     132       1       1       0       0       0       000010000D    133
     510       0      -9       1       1                    FACE       6D    134
     128     133       1       1       0       0       0       001010000D    135
     128       0      -9       8       0                  SPLSRF       5D    136
     508     141       1       1       0       0       0       001010000D    137
     508       0       0       1       1                EDGELOOP       9D    138
     510     142       1       1       0       0       0       000010000D    139
     510       0      -9       1       1                    FACE       7D    140
     110     143       1       1       0       0       0       001010000D    141
     110       0      -9       1       0                    LINE      21D    142
     110     144       1       1       0       0       0       001010000D    143
     110       0      -9       1       0                    LINE      22D    144
     120     145       1       1       0       0       0       001010000D    145
     120       0      -9       1       0                    SREV       3D    146
     508     146       1       1       0       0       0       001010000D    147
     508       0       0       1       1                EDGELOOP      10D    148
     510     147       1       1       0       0       0       000010000D    149
     510       0      -9       1       1                    FACE       8D    150
     128     148       1       1       0       0       0       001010000D    151
     128       0      -9       8       0                  SPLSRF       6D    152
     508     156       1       1       0       0       0       001010000D    153
     508       0       0       1       1                EDGELOOP      11D    154
     510     157       1       1       0       0       0       000010000D    155
     510       0      -9       1       1                    FACE       9D    156
     110     158       1       1       0       0       0       001010000D    157
     110       0      -9       1       0                    LINE      23D    158
     110     159       1       1       0       0       0       001010000D    159
     110       0      -9       1       0                    LINE      24D    160
     120     160       1       1       0       0       0       001010000D    161
     120       0      -9       1       0                    SREV       4D    162
     508     161       1       1       0       0       0       001010000D    163
     508       0       0       1       1                EDGELOOP      12D    164
     510     162       1       1       0       0       0       000010000D    165
     510       0      -9       1       1                    FACE      10D    166
     514     163       1       1       0       0       0       000000000D    167
     514       0      -9       2       1                   SHELL       1D    168
     186     165       1       1       0       0       0       000000000D    169
     186       0      -9       1       0                    MSBR       1D    170
314,1.1D0,1.2D0,1D2;                                                   1P      1
314,1.1D1,1.1D1,1.1D1;                                                 3P      2
314,3.92D1,1.2D0,1.2D0;                                                5P      3
314,4.1D1,0D0,2.2D1;                                                   7P      4
314,8.24D1,3.53D1,7.84D1;                                              9P      5
314,8.784D1,9.49D1,1D2;                                               11P      6
314,9.6D1,9.6D1,9.6D1;                                                13P      7
314,9.8D1,6.27D1,0D0;                                                 15P      8
314,1D2,1D2,9.49D1;                                                   17P      9
124,0D0,0D0,-1D0,1.875D2,7.071067811865D-1,7.071067811865D-1,         19P     10
0D0,0D0,7.071067811865D-1,-7.071067811865D-1,0D0,0D0;                 19P     11
100,0D0,0D0,0D0,7.174D2,0D0,-2.746629692348D-13,7.174D2;              21P     12
110,-1.875D2,5.072784048232D2,-5.072784048232D2,1.875D2,              23P     13
5.072784048232D2,-5.072784048232D2;                                   23P     14
124,0D0,0D0,1D0,-1.875D2,7.071067811865D-1,7.071067811865D-1,         25P     15
0D0,0D0,-7.071067811865D-1,7.071067811865D-1,0D0,0D0;                 25P     16
100,0D0,0D0,0D0,7.174D2,0D0,-2.746629692348D-13,7.174D2;              27P     17
110,-1.875D2,5.072784048232D2,5.072784048232D2,1.875D2,               29P     18
5.072784048232D2,5.072784048232D2;                                    29P     19
110,1.875D2,7.269057710598D2,7.269057710598D2,1.875D2,                31P     20
5.072784048232D2,5.072784048232D2;                                    31P     21
110,1.875D2,7.269057710598D2,-7.269057710598D2,1.875D2,               33P     22
5.072784048232D2,-5.072784048232D2;                                   33P     23
110,-1.875D2,7.269057710598D2,7.269057710598D2,-1.875D2,              35P     24
5.072784048232D2,5.072784048232D2;                                    35P     25
110,-1.875D2,7.269057710598D2,-7.269057710598D2,-1.875D2,             37P     26
5.072784048232D2,-5.072784048232D2;                                   37P     27
124,0D0,0D0,-1D0,-1.875D2,7.071067811865D-1,7.071067811865D-1,        39P     28
0D0,0D0,7.071067811865D-1,-7.071067811865D-1,0D0,0D0;                 39P     29
100,0D0,0D0,0D0,1.028D3,0D0,-1.653170872765D-13,1.028D3;              41P     30
110,-1.875D2,7.269057710598D2,-7.269057710598D2,1.875D2,              43P     31
7.269057710598D2,-7.269057710598D2;                                   43P     32
124,0D0,0D0,1D0,1.875D2,7.071067811865D-1,7.071067811865D-1,0D0,      45P     33
0D0,-7.071067811865D-1,7.071067811865D-1,0D0,0D0;                     45P     34
100,0D0,0D0,0D0,1.028D3,0D0,-1.653170872765D-13,1.028D3;              47P     35
110,-1.875D2,7.269057710598D2,7.269057710598D2,1.875D2,               49P     36
7.269057710598D2,7.269057710598D2;                                    49P     37
110,-1.865D2,7.261986642786D2,7.261986642786D2,-1.865D2,              51P     38
5.079855116044D2,5.079855116044D2;                                    51P     39
110,-1.865D2,7.261986642786D2,-7.261986642786D2,-1.865D2,             53P     40
5.079855116044D2,-5.079855116044D2;                                   53P     41
124,0D0,0D0,-1D0,1.865D2,7.071067811865D-1,7.071067811865D-1,         55P     42
0D0,0D0,7.071067811865D-1,-7.071067811865D-1,0D0,0D0;                 55P     43
100,0D0,0D0,0D0,1.027D3,0D0,-1.651562729892D-13,1.027D3;              57P     44
110,-1.865D2,7.261986642786D2,-7.261986642786D2,1.865D2,              59P     45
7.261986642786D2,-7.261986642786D2;                                   59P     46
124,0D0,0D0,1D0,-1.865D2,7.071067811865D-1,7.071067811865D-1,         61P     47
0D0,0D0,-7.071067811865D-1,7.071067811865D-1,0D0,0D0;                 61P     48
100,0D0,0D0,0D0,1.027D3,0D0,-1.651562729892D-13,1.027D3;              63P     49
110,-1.865D2,7.261986642786D2,7.261986642786D2,1.865D2,               65P     50
7.261986642786D2,7.261986642786D2;                                    65P     51
110,1.865D2,7.261986642786D2,7.261986642786D2,1.865D2,                67P     52
5.079855116044D2,5.079855116044D2;                                    67P     53
110,1.865D2,7.261986642786D2,-7.261986642786D2,1.865D2,               69P     54
5.079855116044D2,-5.079855116044D2;                                   69P     55
124,0D0,0D0,-1D0,-1.865D2,7.071067811865D-1,7.071067811865D-1,        71P     56
0D0,0D0,7.071067811865D-1,-7.071067811865D-1,0D0,0D0;                 71P     57
100,0D0,0D0,0D0,7.184D2,0D0,-1.155289839488D-13,7.184D2;              73P     58
110,-1.865D2,5.079855116044D2,-5.079855116044D2,1.865D2,              75P     59
5.079855116044D2,-5.079855116044D2;                                   75P     60
124,0D0,0D0,1D0,1.865D2,7.071067811865D-1,7.071067811865D-1,0D0,      77P     61
0D0,-7.071067811865D-1,7.071067811865D-1,0D0,0D0;                     77P     62
100,0D0,0D0,0D0,7.184D2,0D0,-1.155289839488D-13,7.184D2;              79P     63
110,-1.865D2,5.079855116044D2,5.079855116044D2,1.865D2,               81P     64
5.079855116044D2,5.079855116044D2;                                    81P     65
502,16,1.875D2,7.269057710598D2,7.269057710598D2,1.875D2,             83P     66
5.072784048232D2,5.072784048232D2,1.875D2,7.269057710598D2,           83P     67
-7.269057710598D2,1.875D2,5.072784048232D2,-5.072784048232D2,         83P     68
-1.875D2,7.269057710598D2,7.269057710598D2,-1.875D2,                  83P     69
5.072784048232D2,5.072784048232D2,-1.875D2,7.269057710598D2,          83P     70
-7.269057710598D2,-1.875D2,5.072784048232D2,-5.072784048232D2,        83P     71
-1.865D2,7.261986642786D2,7.261986642786D2,-1.865D2,                  83P     72
5.079855116044D2,5.079855116044D2,-1.865D2,7.261986642786D2,          83P     73
-7.261986642786D2,-1.865D2,5.079855116044D2,-5.079855116044D2,        83P     74
1.865D2,7.261986642786D2,7.261986642786D2,1.865D2,                    83P     75
5.079855116044D2,5.079855116044D2,1.865D2,7.261986642786D2,           83P     76
-7.261986642786D2,1.865D2,5.079855116044D2,-5.079855116044D2;         83P     77
504,24,31,83,1,83,2,33,83,3,83,4,49,83,5,83,1,35,83,5,83,6,37,        85P     78
83,7,83,8,51,83,9,83,10,53,83,11,83,12,65,83,9,83,13,67,83,13,        85P     79
83,14,69,83,15,83,16,43,83,7,83,3,59,83,11,83,15,29,83,6,83,2,        85P     80
81,83,10,83,14,23,83,8,83,4,75,83,12,83,16,41,83,5,83,7,47,83,3,      85P     81
83,1,57,83,13,83,15,63,83,11,83,9,21,83,2,83,4,27,83,8,83,6,73,       85P     82
83,10,83,12,79,83,16,83,14;                                           85P     83
110,-2.0625D2,0D0,0D0,-2.0525D2,0D0,0D0;                              87P     84
110,-1.95D2,-7.174D2,0D0,1.95D2,-7.174D2,0D0;                         89P     85
120,87,89,-3.958406743523D0,-2.324778563656D0;                        91P     86
508,4,0,85,21,1,0,0,85,15,0,0,0,85,22,1,0,0,85,13,1,0;                93P     87
510,91,1,0,93;                                                        95P     88
128,1,1,1,1,0,0,1,0,0,-1.038414431904D3,-1.038414431904D3,            97P     89
-4.968639729197D2,-4.968639729197D2,-7.559820019022D2,                97P     90
-7.559820019022D2,7.559820019022D2,7.559820019022D2,1D0,1D0,1D0,      97P     91
1D0,1.875D2,1.038414431904D3,7.559820019022D2,1.875D2,                97P     92
4.968639729197D2,7.559820019022D2,1.875D2,1.038414431904D3,           97P     93
-7.559820019022D2,1.875D2,4.968639729197D2,-7.559820019022D2,         97P     94
-1.038414431904D3,-4.968639729197D2,-7.559820019022D2,                97P     95
7.559820019022D2;                                                     97P     96
508,4,0,85,1,0,0,0,85,18,0,0,0,85,2,1,0,0,85,21,0,0;                  99P     97
510,97,1,0,99;                                                       101P     98
128,1,1,1,1,0,0,1,0,0,7.11188D2,7.11188D2,1.034212D3,1.034212D3,     103P     99
1.4529D2,1.4529D2,5.3529D2,5.3529D2,1D0,1D0,1D0,1D0,-1.95D2,         103P    100
5.028858574985D2,5.028858574985D2,-1.95D2,7.312983183845D2,          103P    101
7.312983183845D2,1.95D2,5.028858574985D2,5.028858574985D2,           103P    102
1.95D2,7.312983183845D2,7.312983183845D2,7.11188D2,1.034212D3,       103P    103
1.4529D2,5.3529D2;                                                   103P    104
508,4,0,85,1,1,0,0,85,13,0,0,0,85,4,0,0,0,85,3,1,0;                  105P    105
508,4,0,85,6,1,0,0,85,14,1,0,0,85,9,0,0,0,85,8,0,0;                  107P    106
510,103,2,0,105,107;                                                 109P    107
128,1,1,1,1,0,0,1,0,0,-1.038414431904D3,-1.038414431904D3,           111P    108
-4.968639729197D2,-4.968639729197D2,-7.559820019022D2,               111P    109
-7.559820019022D2,7.559820019022D2,7.559820019022D2,1D0,1D0,1D0,     111P    110
1D0,-1.875D2,1.038414431904D3,7.559820019022D2,-1.875D2,             111P    111
4.968639729197D2,7.559820019022D2,-1.875D2,1.038414431904D3,         111P    112
-7.559820019022D2,-1.875D2,4.968639729197D2,-7.559820019022D2,       111P    113
-1.038414431904D3,-4.968639729197D2,-7.559820019022D2,               111P    114
7.559820019022D2;                                                    111P    115
508,4,0,85,4,1,0,0,85,22,0,0,0,85,5,0,0,0,85,17,0,0;                 113P    116
510,111,1,0,113;                                                     115P    117
128,1,1,1,1,0,0,1,0,0,8.805128754723D2,8.805128754723D2,             117P    118
1.203536875472D3,1.203536875472D3,1.4529D2,1.4529D2,5.3529D2,        117P    119
5.3529D2,1D0,1D0,1D0,1D0,-1.95D2,7.312983183845D2,                   117P    120
-7.312983183845D2,-1.95D2,5.028858574985D2,-5.028858574985D2,        117P    121
1.95D2,7.312983183845D2,-7.312983183845D2,1.95D2,                    117P    122
5.028858574985D2,-5.028858574985D2,8.805128754723D2,                 117P    123
1.203536875472D3,1.4529D2,5.3529D2;                                  117P    124
508,4,0,85,2,0,0,0,85,11,0,0,0,85,5,1,0,0,85,15,1,0;                 119P    125
508,4,0,85,7,0,0,0,85,12,1,0,0,85,10,1,0,0,85,16,0,0;                121P    126
510,117,2,0,119,121;                                                 123P    127
110,-2.0625D2,0D0,0D0,-2.0525D2,0D0,0D0;                             125P    128
110,-1.95D2,-1.028D3,0D0,1.95D2,-1.028D3,0D0;                        127P    129
120,125,127,-3.958406743523D0,-2.324778563656D0;                     129P    130
508,4,0,85,17,1,0,0,85,11,1,0,0,85,18,1,0,0,85,3,0,0;                131P    131
510,129,1,0,131;                                                     133P    132
128,1,1,1,1,0,0,1,0,0,-1.037380289768D3,-1.037380289768D3,           135P    133
-4.976052218365D2,-4.976052218365D2,-7.552466108497D2,               135P    134
-7.552466108497D2,7.552466108497D2,7.552466108497D2,1D0,1D0,1D0,     135P    135
1D0,-1.865D2,1.037380289768D3,7.552466108497D2,-1.865D2,             135P    136
4.976052218365D2,7.552466108497D2,-1.865D2,1.037380289768D3,         135P    137
-7.552466108497D2,-1.865D2,4.976052218365D2,-7.552466108497D2,       135P    138
-1.037380289768D3,-4.976052218365D2,-7.552466108497D2,               135P    139
7.552466108497D2;                                                    135P    140
508,4,0,85,6,0,0,0,85,20,0,0,0,85,7,1,0,0,85,23,0,0;                 137P    141
510,135,1,0,137;                                                     139P    142
110,-2.0625D2,0D0,0D0,-2.0525D2,0D0,0D0;                             141P    143
110,-1.9396D2,-1.027D3,0D0,1.9396D2,-1.027D3,0D0;                    143P    144
120,141,143,-3.958406743523D0,-2.324778563656D0;                     145P    145
508,4,0,85,19,1,0,0,85,12,0,0,0,85,20,1,0,0,85,8,1,0;                147P    146
510,145,1,0,147;                                                     149P    147
128,1,1,1,1,0,0,1,0,0,-1.037380289768D3,-1.037380289768D3,           151P    148
-4.976052218365D2,-4.976052218365D2,-7.552466108497D2,               151P    149
-7.552466108497D2,7.552466108497D2,7.552466108497D2,1D0,1D0,1D0,     151P    150
1D0,1.865D2,1.037380289768D3,7.552466108497D2,1.865D2,               151P    151
4.976052218365D2,7.552466108497D2,1.865D2,1.037380289768D3,          151P    152
-7.552466108497D2,1.865D2,4.976052218365D2,-7.552466108497D2,        151P    153
-1.037380289768D3,-4.976052218365D2,-7.552466108497D2,               151P    154
7.552466108497D2;                                                    151P    155
508,4,0,85,9,1,0,0,85,24,0,0,0,85,10,0,0,0,85,19,0,0;                153P    156
510,151,1,0,153;                                                     155P    157
110,-2.0625D2,0D0,0D0,-2.0525D2,0D0,0D0;                             157P    158
110,-1.9396D2,-7.184D2,0D0,1.9396D2,-7.184D2,0D0;                    159P    159
120,157,159,-3.958406743523D0,-2.324778563656D0;                     161P    160
508,4,0,85,23,1,0,0,85,16,1,0,0,85,24,1,0,0,85,14,0,0;               163P    161
510,161,1,0,163;                                                     165P    162
514,10,95,0,101,1,109,0,115,0,123,0,133,1,139,1,149,0,155,0,165,     167P    163
1;                                                                   167P    164
186,167,1,0;                                                         169P    165
S      1G      4D    170P    165                                        T      1
