 PTC IGES file: mice35-002_mir.igs                                      S      1
1H,,1H;,14HMICE35-002_MIR,18Hmice35-002_mir.igs,                        G      1
49HPro/ENGINEER by Parametric Technology Corporation,7H2004110,32,38,7, G      2
38,15,14HMICE35-002_MIR,1.,2,2HMM,32768,0.5,13H080428.080954,0.010202,  G      3
102.025,10Hliuxiaokun,7HUnknown,10,0,13H080428.080954;                  G      4
     314       1       1       1       0       0       0       001000200D      1
     314       0       4       1       0                   COLOR       1D      2
     314       2       1       1       0       0       0       001000200D      3
     314       0       1       1       0                   COLOR       2D      4
     314       3       1       1       0       0       0       001000200D      5
     314       0       1       1       0                   COLOR       3D      6
     314       4       1       1       0       0       0       001000200D      7
     314       0       1       1       0                   COLOR       4D      8
     314       5       1       1       0       0       0       001000200D      9
     314       0       8       1       0                   COLOR       5D     10
     314       6       1       1       0       0       0       001000200D     11
     314       0       8       1       0                   COLOR       6D     12
     314       7       1       1       0       0       0       001000200D     13
     314       0       8       1       0                   COLOR       7D     14
     314       8       1       1       0       0       0       001000200D     15
     314       0       5       1       0                   COLOR       8D     16
     314       9       1       1       0       0       0       001000200D     17
     314       0       8       1       0                   COLOR       9D     18
     110      10       1       1       0       0       0       001010000D     19
     110       0      -9       1       0                    LINE       1D     20
     110      11       1       1       0       0       0       001010000D     21
     110       0      -9       1       0                    LINE       2D     22
     110      12       1       1       0       0       0       001010000D     23
     110       0      -9       1       0                    LINE       3D     24
     110      13       1       1       0       0       0       001010000D     25
     110       0      -9       1       0                    LINE       4D     26
     110      14       1       1       0       0       0       001010000D     27
     110       0      -9       1       0                    LINE       5D     28
     110      15       1       1       0       0       0       001010000D     29
     110       0      -9       1       0                    LINE       6D     30
     110      16       1       1       0       0       0       001010000D     31
     110       0      -9       1       0                    LINE       7D     32
     110      17       1       1       0       0       0       001010000D     33
     110       0      -9       1       0                    LINE       8D     34
     110      18       1       1       0       0       0       001010000D     35
     110       0      -9       1       0                    LINE       9D     36
     110      19       1       1       0       0       0       001010000D     37
     110       0      -9       1       0                    LINE      10D     38
     110      20       1       1       0       0       0       001010000D     39
     110       0      -9       1       0                    LINE      11D     40
     110      21       1       1       0       0       0       001010000D     41
     110       0      -9       1       0                    LINE      12D     42
     502      22       1       1       0       0       0       001010000D     43
     502       0      -9       4       1                  VERTEX       1D     44
     504      26       1       1       0       0       0       000010001D     45
     504       0      -9       3       1                    EDGE       1D     46
     128      29       1       1       0       0       0       001010000D     47
     128       0      -9       5       0                  SPLSRF       1D     48
     508      34       1       1       0       0       0       001010000D     49
     508       0       0       1       1                EDGELOOP       1D     50
     510      35       1       1       0       0       0       000010000D     51
     510       0      -9       1       1                    FACE       1D     52
     128      36       1       1       0       0       0       001010000D     53
     128       0      -9       7       0                  SPLSRF       2D     54
     508      43       1       1       0       0       0       001010000D     55
     508       0       0       1       1                EDGELOOP       2D     56
     510      44       1       1       0       0       0       000010000D     57
     510       0      -9       1       1                    FACE       2D     58
     128      45       1       1       0       0       0       001010000D     59
     128       0      -9       7       0                  SPLSRF       3D     60
     508      52       1       1       0       0       0       001010000D     61
     508       0       0       1       1                EDGELOOP       3D     62
     510      53       1       1       0       0       0       000010000D     63
     510       0      -9       1       1                    FACE       3D     64
     128      54       1       1       0       0       0       001010000D     65
     128       0      -9       7       0                  SPLSRF       4D     66
     508      61       1       1       0       0       0       001010000D     67
     508       0       0       1       1                EDGELOOP       4D     68
     510      62       1       1       0       0       0       000010000D     69
     510       0      -9       1       1                    FACE       4D     70
     128      63       1       1       0       0       0       001010000D     71
     128       0      -9       7       0                  SPLSRF       5D     72
     508      70       1       1       0       0       0       001010000D     73
     508       0       0       1       1                EDGELOOP       5D     74
     510      71       1       1       0       0       0       000010000D     75
     510       0      -9       1       1                    FACE       5D     76
     128      72       1       1       0       0       0       001010000D     77
     128       0      -9       5       0                  SPLSRF       6D     78
     508      77       1       1       0       0       0       001010000D     79
     508       0       0       1       1                EDGELOOP       6D     80
     510      78       1       1       0       0       0       000010000D     81
     510       0      -9       1       1                    FACE       6D     82
     514      79       1       1       0       0       0       000000000D     83
     514       0      -9       1       1                   SHELL       1D     84
     186      80       1       1       0       0       0       000000000D     85
     186       0      -9       1       0                    MSBR       1D     86
314,1.1D0,1.2D0,1D2;                                                   1P      1
314,1.1D1,1.1D1,1.1D1;                                                 3P      2
314,3.92D1,1.2D0,1.2D0;                                                5P      3
314,4.1D1,0D0,2.2D1;                                                   7P      4
314,8.24D1,6.67D1,7.45D1;                                              9P      5
314,8.784D1,9.49D1,1D2;                                               11P      6
314,9.6D1,9.6D1,9.6D1;                                                13P      7
314,9.8D1,6.27D1,0D0;                                                 15P      8
314,1D2,1D2,9.49D1;                                                   17P      9
110,-1.342726057797D2,0D0,0D0,-3.427260577969D1,0D0,0D0;              19P     10
110,-1.342726057797D2,2D1,0D0,-1.342726057797D2,0D0,0D0;              21P     11
110,-3.427260577969D1,2D1,0D0,-1.342726057797D2,2D1,0D0;              23P     12
110,-3.427260577969D1,0D0,0D0,-3.427260577969D1,2D1,0D0;              25P     13
110,-1.342726057797D2,0D0,0D0,-1.342726057797D2,0D0,-3D0;             27P     14
110,-3.427260577969D1,0D0,0D0,-3.427260577969D1,0D0,-3D0;             29P     15
110,-3.427260577969D1,2D1,0D0,-3.427260577969D1,2D1,-3D0;             31P     16
110,-1.342726057797D2,2D1,0D0,-1.342726057797D2,2D1,-3D0;             33P     17
110,-1.342726057797D2,0D0,-3D0,-3.427260577969D1,0D0,-3D0;            35P     18
110,-3.427260577969D1,0D0,-3D0,-3.427260577969D1,2D1,-3D0;            37P     19
110,-3.427260577969D1,2D1,-3D0,-1.342726057797D2,2D1,-3D0;            39P     20
110,-1.342726057797D2,2D1,-3D0,-1.342726057797D2,0D0,-3D0;            41P     21
502,8,-1.342726057797D2,0D0,0D0,-3.427260577969D1,0D0,0D0,            43P     22
-3.427260577969D1,2D1,0D0,-1.342726057797D2,2D1,0D0,                  43P     23
-1.342726057797D2,0D0,-3D0,-3.427260577969D1,0D0,-3D0,                43P     24
-3.427260577969D1,2D1,-3D0,-1.342726057797D2,2D1,-3D0;                43P     25
504,12,19,43,1,43,2,25,43,2,43,3,23,43,3,43,4,21,43,4,43,1,35,        45P     26
43,5,43,6,37,43,6,43,7,39,43,7,43,8,41,43,8,43,5,27,43,1,43,5,        45P     27
29,43,2,43,6,31,43,3,43,7,33,43,4,43,8;                               45P     28
128,1,1,1,1,0,0,1,0,0,-1.362726057797D2,-1.362726057797D2,            47P     29
-3.227260577969D1,-3.227260577969D1,-4D-1,-4D-1,2.04D1,2.04D1,        47P     30
1D0,1D0,1D0,1D0,-1.362726057797D2,-4D-1,0D0,-3.227260577969D1,        47P     31
-4D-1,0D0,-1.362726057797D2,2.04D1,0D0,-3.227260577969D1,2.04D1,      47P     32
0D0,-1.362726057797D2,-3.227260577969D1,-4D-1,2.04D1;                 47P     33
508,4,0,45,1,0,0,0,45,4,0,0,0,45,3,0,0,0,45,2,0,0;                    49P     34
510,47,1,0,49;                                                        51P     35
128,1,1,1,1,0,0,1,0,0,-2D0,-2D0,1.02D2,1.02D2,                        53P     36
-1.224294082318D-1,-1.224294082318D-1,3.122429408232D0,               53P     37
3.122429408232D0,1D0,1D0,1D0,1D0,-1.362726057797D2,0D0,               53P     38
1.224294082318D-1,-3.227260577969D1,0D0,1.224294082318D-1,            53P     39
-1.362726057797D2,0D0,-3.122429408232D0,-3.227260577969D1,0D0,        53P     40
-3.122429408232D0,-2D0,1.02D2,-1.224294082318D-1,                     53P     41
3.122429408232D0;                                                     53P     42
508,4,0,45,1,1,0,0,45,10,1,0,0,45,5,0,0,0,45,9,0,0;                   55P     43
510,53,1,0,55;                                                        57P     44
128,1,1,1,1,0,0,1,0,0,-4D-1,-4D-1,2.04D1,2.04D1,                      59P     45
-1.224294082318D-1,-1.224294082318D-1,3.122429408232D0,               59P     46
3.122429408232D0,1D0,1D0,1D0,1D0,-3.427260577969D1,-4D-1,             59P     47
1.224294082318D-1,-3.427260577969D1,2.04D1,1.224294082318D-1,         59P     48
-3.427260577969D1,-4D-1,-3.122429408232D0,-3.427260577969D1,          59P     49
2.04D1,-3.122429408232D0,-4D-1,2.04D1,-1.224294082318D-1,             59P     50
3.122429408232D0;                                                     59P     51
508,4,0,45,2,1,0,0,45,11,1,0,0,45,6,0,0,0,45,10,0,0;                  61P     52
510,59,1,0,61;                                                        63P     53
128,1,1,1,1,0,0,1,0,0,-2D0,-2D0,1.02D2,1.02D2,                        65P     54
-1.224294082318D-1,-1.224294082318D-1,3.122429408232D0,               65P     55
3.122429408232D0,1D0,1D0,1D0,1D0,-3.227260577969D1,2D1,               65P     56
1.224294082318D-1,-1.362726057797D2,2D1,1.224294082318D-1,            65P     57
-3.227260577969D1,2D1,-3.122429408232D0,-1.362726057797D2,2D1,        65P     58
-3.122429408232D0,-2D0,1.02D2,-1.224294082318D-1,                     65P     59
3.122429408232D0;                                                     65P     60
508,4,0,45,3,1,0,0,45,12,1,0,0,45,7,0,0,0,45,11,0,0;                  67P     61
510,65,1,0,67;                                                        69P     62
128,1,1,1,1,0,0,1,0,0,-4D-1,-4D-1,2.04D1,2.04D1,                      71P     63
-1.224294082318D-1,-1.224294082318D-1,3.122429408232D0,               71P     64
3.122429408232D0,1D0,1D0,1D0,1D0,-1.342726057797D2,2.04D1,            71P     65
1.224294082318D-1,-1.342726057797D2,-4D-1,1.224294082318D-1,          71P     66
-1.342726057797D2,2.04D1,-3.122429408232D0,-1.342726057797D2,         71P     67
-4D-1,-3.122429408232D0,-4D-1,2.04D1,-1.224294082318D-1,              71P     68
3.122429408232D0;                                                     71P     69
508,4,0,45,4,1,0,0,45,9,1,0,0,45,8,0,0,0,45,12,0,0;                   73P     70
510,71,1,0,73;                                                        75P     71
128,1,1,1,1,0,0,1,0,0,-1.362726057797D2,-1.362726057797D2,            77P     72
-3.227260577969D1,-3.227260577969D1,-4D-1,-4D-1,2.04D1,2.04D1,        77P     73
1D0,1D0,1D0,1D0,-1.362726057797D2,-4D-1,-3D0,-3.227260577969D1,       77P     74
-4D-1,-3D0,-1.362726057797D2,2.04D1,-3D0,-3.227260577969D1,           77P     75
2.04D1,-3D0,-1.362726057797D2,-3.227260577969D1,-4D-1,2.04D1;         77P     76
508,4,0,45,5,1,0,0,45,6,1,0,0,45,7,1,0,0,45,8,1,0;                    79P     77
510,77,1,0,79;                                                        81P     78
514,6,51,1,57,0,63,0,69,0,75,0,81,0;                                  83P     79
186,83,1,0;                                                           85P     80
S      1G      4D     86P     80                                        T      1
