 PTC IGES file: mice34-003.igs                                          S      1
1H,,1H;,10HMICE34-003,14Hmice34-003.igs,                                G      1
49HPro/ENGINEER by Parametric Technology Corporation,7H2004110,32,38,7, G      2
38,15,10HMICE34-003,1.,2,2HMM,32768,0.5,13H080428.080953,0.010493,      G      3
104.935,10Hliuxiaokun,7HUnknown,10,0,13H080428.080953;                  G      4
     314       1       1       1       0       0       0       001000200D      1
     314       0       4       1       0                   COLOR       1D      2
     314       2       1       1       0       0       0       001000200D      3
     314       0       1       1       0                   COLOR       2D      4
     314       3       1       1       0       0       0       001000200D      5
     314       0       1       1       0                   COLOR       3D      6
     314       4       1       1       0       0       0       001000200D      7
     314       0       1       1       0                   COLOR       4D      8
     314       5       1       1       0       0       0       001000200D      9
     314       0       8       1       0                   COLOR       5D     10
     314       6       1       1       0       0       0       001000200D     11
     314       0       8       1       0                   COLOR       6D     12
     314       7       1       1       0       0       0       001000200D     13
     314       0       5       1       0                   COLOR       7D     14
     314       8       1       1       0       0       0       001000200D     15
     314       0       5       1       0                   COLOR       8D     16
     314       9       1       1       0       0       0       001000200D     17
     314       0       8       1       0                   COLOR       9D     18
     110      10       1       1       0       0       0       001010000D     19
     110       0     -15       1       0                    LINE       1D     20
     124      11       1       1       0       0       0       001000000D     21
     124       0       0       1       0                   XFORM       1D     22
     100      12       1       1       0       0      21       001010000D     23
     100       0     -15       1       0                     ARC       1D     24
     110      13       1       1       0       0       0       001010000D     25
     110       0     -15       1       0                    LINE       2D     26
     124      14       1       1       0       0       0       001000000D     27
     124       0       0       1       0                   XFORM       2D     28
     100      15       1       1       0       0      27       001010000D     29
     100       0     -15       1       0                     ARC       2D     30
     110      16       1       1       0       0       0       001010000D     31
     110       0     -15       1       0                    LINE       3D     32
     110      17       1       1       0       0       0       001010000D     33
     110       0     -15       1       0                    LINE       4D     34
     110      18       1       1       0       0       0       001010000D     35
     110       0     -15       1       0                    LINE       5D     36
     124      19       1       1       0       0       0       001000000D     37
     124       0       0       2       0                   XFORM       3D     38
     100      21       1       1       0       0      37       001010000D     39
     100       0     -15       1       0                     ARC       3D     40
     110      22       1       1       0       0       0       001010000D     41
     110       0     -15       1       0                    LINE       6D     42
     110      23       1       1       0       0       0       001010000D     43
     110       0     -15       1       0                    LINE       7D     44
     110      24       1       1       0       0       0       001010000D     45
     110       0     -15       1       0                    LINE       8D     46
     110      25       1       1       0       0       0       001010000D     47
     110       0     -15       1       0                    LINE       9D     48
     110      26       1       1       0       0       0       001010000D     49
     110       0     -15       1       0                    LINE      10D     50
     110      27       1       1       0       0       0       001010000D     51
     110       0     -15       1       0                    LINE      11D     52
     110      28       1       1       0       0       0       001010000D     53
     110       0     -15       1       0                    LINE      12D     54
     110      29       1       1       0       0       0       001010000D     55
     110       0     -15       1       0                    LINE      13D     56
     110      30       1       1       0       0       0       001010000D     57
     110       0     -15       1       0                    LINE      14D     58
     124      31       1       1       0       0       0       001000000D     59
     124       0       0       2       0                   XFORM       4D     60
     100      33       1       1       0       0      59       001010000D     61
     100       0     -15       1       0                     ARC       4D     62
     110      34       1       1       0       0       0       001010000D     63
     110       0     -15       1       0                    LINE      15D     64
     110      35       1       1       0       0       0       001010000D     65
     110       0     -15       1       0                    LINE      16D     66
     110      36       1       1       0       0       0       001010000D     67
     110       0     -15       1       0                    LINE      17D     68
     124      37       1       1       0       0       0       001000000D     69
     124       0       0       1       0                   XFORM       5D     70
     100      38       1       1       0       0      69       001010000D     71
     100       0     -15       1       0                     ARC       5D     72
     110      39       1       1       0       0       0       001010000D     73
     110       0     -15       1       0                    LINE      18D     74
     124      40       1       1       0       0       0       001000000D     75
     124       0       0       1       0                   XFORM       6D     76
     100      41       1       1       0       0      75       001010000D     77
     100       0     -15       1       0                     ARC       6D     78
     502      42       1       1       0       0       0       001010000D     79
     502       0     -15       5       1                  VERTEX       1D     80
     504      47       1       1       0       0       0       000010001D     81
     504       0     -15       6       1                    EDGE       1D     82
     128      53       1       1       0       0       0       001010000D     83
     128       0     -15       4       0                  SPLSRF       1D     84
     508      57       1       1       0       0       0       001010000D     85
     508       0       0       2       1                EDGELOOP       1D     86
     510      59       1       1       0       0       0       000010000D     87
     510       0     -15       1       1                    FACE       1D     88
     128      60       1       1       0       0       0       001010000D     89
     128       0     -15       5       0                  SPLSRF       2D     90
     508      65       1       1       0       0       0       001010000D     91
     508       0       0       1       1                EDGELOOP       2D     92
     510      66       1       1       0       0       0       000010000D     93
     510       0     -15       1       1                    FACE       2D     94
     110      67       1       1       0       0       0       001010000D     95
     110       0     -15       1       0                    LINE      19D     96
     110      68       1       1       0       0       0       001010000D     97
     110       0     -15       1       0                    LINE      20D     98
     120      69       1       1       0       0       0       001010000D     99
     120       0     -15       1       0                    SREV       1D    100
     508      70       1       1       0       0       0       001010000D    101
     508       0       0       1       1                EDGELOOP       3D    102
     510      71       1       1       0       0       0       000010000D    103
     510       0     -15       1       1                    FACE       3D    104
     128      72       1       1       0       0       0       001010000D    105
     128       0     -15       8       0                  SPLSRF       3D    106
     508      80       1       1       0       0       0       001010000D    107
     508       0       0       1       1                EDGELOOP       4D    108
     510      81       1       1       0       0       0       000010000D    109
     510       0     -15       1       1                    FACE       4D    110
     128      82       1       1       0       0       0       001010000D    111
     128       0     -15       6       0                  SPLSRF       4D    112
     508      88       1       1       0       0       0       001010000D    113
     508       0       0       1       1                EDGELOOP       5D    114
     510      89       1       1       0       0       0       000010000D    115
     510       0     -15       1       1                    FACE       5D    116
     128      90       1       1       0       0       0       001010000D    117
     128       0     -15       8       0                  SPLSRF       5D    118
     508      98       1       1       0       0       0       001010000D    119
     508       0       0       1       1                EDGELOOP       6D    120
     510      99       1       1       0       0       0       000010000D    121
     510       0     -15       1       1                    FACE       6D    122
     110     100       1       1       0       0       0       001010000D    123
     110       0     -15       1       0                    LINE      21D    124
     110     101       1       1       0       0       0       001010000D    125
     110       0     -15       1       0                    LINE      22D    126
     120     102       1       1       0       0       0       001010000D    127
     120       0     -15       1       0                    SREV       2D    128
     508     103       1       1       0       0       0       001010000D    129
     508       0       0       1       1                EDGELOOP       7D    130
     510     104       1       1       0       0       0       000010000D    131
     510       0     -15       1       1                    FACE       7D    132
     128     105       1       1       0       0       0       001010000D    133
     128       0     -15       5       0                  SPLSRF       6D    134
     508     110       1       1       0       0       0       001010000D    135
     508       0       0       1       1                EDGELOOP       8D    136
     510     111       1       1       0       0       0       000010000D    137
     510       0     -15       1       1                    FACE       8D    138
     110     112       1       1       0       0       0       001010000D    139
     110       0     -15       1       0                    LINE      23D    140
     110     113       1       1       0       0       0       001010000D    141
     110       0     -15       1       0                    LINE      24D    142
     120     114       1       1       0       0       0       001010000D    143
     120       0     -15       1       0                    SREV       3D    144
     508     115       1       1       0       0       0       001010000D    145
     508       0       0       1       1                EDGELOOP       9D    146
     510     116       1       1       0       0       0       000010000D    147
     510       0     -15       1       1                    FACE       9D    148
     128     117       1       1       0       0       0       001010000D    149
     128       0     -15       4       0                  SPLSRF       7D    150
     508     121       1       1       0       0       0       001010000D    151
     508       0       0       2       1                EDGELOOP      10D    152
     510     123       1       1       0       0       0       000010000D    153
     510       0     -15       1       1                    FACE      10D    154
     514     124       1       1       0       0       0       000000000D    155
     514       0     -15       2       1                   SHELL       1D    156
     186     126       1       1       0       0       0       000000000D    157
     186       0     -15       1       0                    MSBR       1D    158
314,1.1D0,1.2D0,1D2;                                                   1P      1
314,1.1D1,1.1D1,1.1D1;                                                 3P      2
314,3.92D1,1.2D0,1.2D0;                                                5P      3
314,4.1D1,0D0,2.2D1;                                                   7P      4
314,8.784D1,9.49D1,1D2;                                                9P      5
314,9.6D1,9.6D1,9.6D1;                                                11P      6
314,9.8D1,6.27D1,0D0;                                                 13P      7
314,1D2,6.62356D1,2.35923D1;                                          15P      8
314,1D2,1D2,9.49D1;                                                   17P      9
110,-1D1,0D0,-2.5D1,-1D1,0D0,2.5D1;                                   19P     10
124,-1D0,0D0,0D0,0D0,0D0,0D0,1D0,0D0,0D0,1D0,0D0,2.5D1;               21P     11
100,0D0,0D0,0D0,1D1,0D0,-1D1,0D0;                                     23P     12
110,1D1,0D0,2.5D1,1D1,0D0,-2.5D1;                                     25P     13
124,1D0,0D0,0D0,0D0,0D0,0D0,1D0,0D0,0D0,-1D0,0D0,-2.5D1;              27P     14
100,0D0,0D0,0D0,1D1,0D0,7D0,7.141428428543D0;                         29P     15
110,7D0,0D0,-3.214142842854D1,7D0,0D0,-6.8D1;                         31P     16
110,7D0,0D0,-6.8D1,-7D0,0D0,-6.8D1;                                   33P     17
110,-7D0,0D0,-6.8D1,-7D0,0D0,-3.214142842854D1;                       35P     18
124,-7D-1,-7.141428428543D-1,0D0,0D0,0D0,0D0,1D0,0D0,                 37P     19
-7.141428428543D-1,7D-1,0D0,-2.5D1;                                   37P     20
100,0D0,0D0,0D0,1D1,0D0,7D0,7.141428428543D0;                         39P     21
110,-1D1,0D0,-2.5D1,-1D1,1.5D0,-2.5D1;                                41P     22
110,-7D0,0D0,-3.214142842854D1,-7D0,1.5D0,-3.214142842854D1;          43P     23
110,-7D0,0D0,-6.8D1,-7D0,1.5D0,-6.8D1;                                45P     24
110,7D0,0D0,-6.8D1,7D0,1.5D0,-6.8D1;                                  47P     25
110,7D0,0D0,-3.214142842854D1,7D0,1.5D0,-3.214142842854D1;            49P     26
110,1D1,0D0,-2.5D1,1D1,1.5D0,-2.5D1;                                  51P     27
110,1D1,0D0,2.5D1,1D1,1.5D0,2.5D1;                                    53P     28
110,-1D1,0D0,2.5D1,-1D1,1.5D0,2.5D1;                                  55P     29
110,-1D1,1.5D0,-2.5D1,-1D1,1.5D0,2.5D1;                               57P     30
124,-7D-1,-7.141428428543D-1,0D0,0D0,0D0,0D0,1D0,1.5D0,               59P     31
-7.141428428543D-1,7D-1,0D0,-2.5D1;                                   59P     32
100,0D0,0D0,0D0,1D1,0D0,7D0,7.141428428543D0;                         61P     33
110,-7D0,1.5D0,-6.8D1,-7D0,1.5D0,-3.214142842854D1;                   63P     34
110,7D0,1.5D0,-6.8D1,-7D0,1.5D0,-6.8D1;                               65P     35
110,7D0,1.5D0,-3.214142842854D1,7D0,1.5D0,-6.8D1;                     67P     36
124,1D0,0D0,0D0,0D0,0D0,0D0,1D0,1.5D0,0D0,-1D0,0D0,-2.5D1;            69P     37
100,0D0,0D0,0D0,1D1,0D0,7D0,7.141428428543D0;                         71P     38
110,1D1,1.5D0,2.5D1,1D1,1.5D0,-2.5D1;                                 73P     39
124,-1D0,0D0,0D0,0D0,0D0,0D0,1D0,1.5D0,0D0,1D0,0D0,2.5D1;             75P     40
100,0D0,0D0,0D0,1D1,0D0,-1D1,0D0;                                     77P     41
502,16,-1D1,0D0,-2.5D1,-1D1,0D0,2.5D1,1D1,0D0,2.5D1,1D1,0D0,          79P     42
-2.5D1,7D0,0D0,-3.214142842854D1,7D0,0D0,-6.8D1,-7D0,0D0,-6.8D1,      79P     43
-7D0,0D0,-3.214142842854D1,-1D1,1.5D0,-2.5D1,-1D1,1.5D0,2.5D1,        79P     44
1D1,1.5D0,2.5D1,1D1,1.5D0,-2.5D1,7D0,1.5D0,-3.214142842854D1,         79P     45
7D0,1.5D0,-6.8D1,-7D0,1.5D0,-6.8D1,-7D0,1.5D0,-3.214142842854D1;      79P     46
504,24,19,79,1,79,2,23,79,2,79,3,25,79,3,79,4,29,79,4,79,5,31,        81P     47
79,5,79,6,33,79,6,79,7,35,79,7,79,8,39,79,8,79,1,57,79,9,79,10,       81P     48
77,79,10,79,11,73,79,11,79,12,71,79,12,79,13,67,79,13,79,14,65,       81P     49
79,14,79,15,63,79,15,79,16,61,79,16,79,9,41,79,1,79,9,55,79,2,        81P     50
79,10,53,79,3,79,11,51,79,4,79,12,49,79,5,79,13,47,79,6,79,14,        81P     51
45,79,7,79,15,43,79,8,79,16;                                          81P     52
128,1,1,1,1,0,0,1,0,0,-1.04D1,-1.04D1,1.04D1,1.04D1,-3.706D1,         83P     53
-3.706D1,7.006D1,7.006D1,1D0,1D0,1D0,1D0,-1.04D1,0D0,3.706D1,         83P     54
1.04D1,0D0,3.706D1,-1.04D1,0D0,-7.006D1,1.04D1,0D0,-7.006D1,          83P     55
-1.04D1,1.04D1,-3.706D1,7.006D1;                                      83P     56
508,8,0,81,1,1,0,0,81,2,1,0,0,81,3,1,0,0,81,4,1,0,0,81,5,1,0,0,       85P     57
81,6,1,0,0,81,7,1,0,0,81,8,1,0;                                       85P     58
510,83,1,0,85;                                                        87P     59
128,1,1,1,1,0,0,1,0,0,-1D0,-1D0,5.1D1,5.1D1,-1.259214040582D-1,       89P     60
-1.259214040582D-1,1.625921404058D0,1.625921404058D0,1D0,1D0,         89P     61
1D0,1D0,-1D1,-1.259214040582D-1,-2.6D1,-1D1,-1.259214040582D-1,       89P     62
2.6D1,-1D1,1.625921404058D0,-2.6D1,-1D1,1.625921404058D0,2.6D1,       89P     63
-1D0,5.1D1,-1.259214040582D-1,1.625921404058D0;                       89P     64
508,4,0,81,1,0,0,0,81,17,1,0,0,81,9,1,0,0,81,18,0,0;                  91P     65
510,89,1,0,91;                                                        93P     66
110,0D0,0D0,-2.5D1,0D0,1D0,-2.5D1;                                    95P     67
110,1D1,-1.259214040582D-1,-2.5D1,1D1,1.625921404058D0,-2.5D1;        97P     68
120,95,97,2.330285846802D0,3.157500630193D0;                          99P     69
508,4,0,81,8,0,0,0,81,24,1,0,0,81,16,1,0,0,81,17,0,0;                101P     70
510,99,1,0,101;                                                      103P     71
128,1,1,1,1,0,0,1,0,0,-7.171714314291D-1,-7.171714314291D-1,         105P     72
3.657574300289D1,3.657574300289D1,-1.259214040582D-1,                105P     73
-1.259214040582D-1,1.625921404058D0,1.625921404058D0,1D0,1D0,        105P     74
1D0,1D0,-7D0,-1.259214040582D-1,-6.871717143143D1,-7D0,              105P     75
-1.259214040582D-1,-3.142425699711D1,-7D0,1.625921404058D0,          105P     76
-6.871717143143D1,-7D0,1.625921404058D0,-3.142425699711D1,           105P     77
-7.171714314291D-1,3.657574300289D1,-1.259214040582D-1,              105P     78
1.625921404058D0;                                                    105P     79
508,4,0,81,7,0,0,0,81,23,1,0,0,81,15,1,0,0,81,24,0,0;                107P     80
510,105,1,0,107;                                                     109P     81
128,1,1,1,1,0,0,1,0,0,-2.8D-1,-2.8D-1,1.428D1,1.428D1,               111P     82
-1.259214040582D-1,-1.259214040582D-1,1.625921404058D0,              111P     83
1.625921404058D0,1D0,1D0,1D0,1D0,7.28D0,-1.259214040582D-1,          111P     84
-6.8D1,-7.28D0,-1.259214040582D-1,-6.8D1,7.28D0,                     111P     85
1.625921404058D0,-6.8D1,-7.28D0,1.625921404058D0,-6.8D1,-2.8D-1,     111P     86
1.428D1,-1.259214040582D-1,1.625921404058D0;                         111P     87
508,4,0,81,6,0,0,0,81,22,1,0,0,81,14,1,0,0,81,23,0,0;                113P     88
510,111,1,0,113;                                                     115P     89
128,1,1,1,1,0,0,1,0,0,-7.171714314291D-1,-7.171714314291D-1,         117P     90
3.657574300289D1,3.657574300289D1,-1.259214040582D-1,                117P     91
-1.259214040582D-1,1.625921404058D0,1.625921404058D0,1D0,1D0,        117P     92
1D0,1D0,7D0,-1.259214040582D-1,-3.142425699711D1,7D0,                117P     93
-1.259214040582D-1,-6.871717143143D1,7D0,1.625921404058D0,           117P     94
-3.142425699711D1,7D0,1.625921404058D0,-6.871717143143D1,            117P     95
-7.171714314291D-1,3.657574300289D1,-1.259214040582D-1,              117P     96
1.625921404058D0;                                                    117P     97
508,4,0,81,5,0,0,0,81,21,1,0,0,81,13,1,0,0,81,22,0,0;                119P     98
510,117,1,0,119;                                                     121P     99
110,0D0,0D0,-2.5D1,0D0,1D0,-2.5D1;                                   123P    100
110,1D1,-1.259214040582D-1,-2.5D1,1D1,1.625921404058D0,-2.5D1;       125P    101
120,123,125,-1.590797660368D-2,8.113068067878D-1;                    127P    102
508,4,0,81,4,0,0,0,81,20,1,0,0,81,12,1,0,0,81,21,0,0;                129P    103
510,127,1,0,129;                                                     131P    104
128,1,1,1,1,0,0,1,0,0,-1D0,-1D0,5.1D1,5.1D1,-1.259214040582D-1,      133P    105
-1.259214040582D-1,1.625921404058D0,1.625921404058D0,1D0,1D0,        133P    106
1D0,1D0,1D1,-1.259214040582D-1,2.6D1,1D1,-1.259214040582D-1,         133P    107
-2.6D1,1D1,1.625921404058D0,2.6D1,1D1,1.625921404058D0,-2.6D1,       133P    108
-1D0,5.1D1,-1.259214040582D-1,1.625921404058D0;                      133P    109
508,4,0,81,3,0,0,0,81,19,1,0,0,81,11,1,0,0,81,20,0,0;                135P    110
510,133,1,0,135;                                                     137P    111
110,0D0,0D0,2.5D1,0D0,1D0,2.5D1;                                     139P    112
110,1D1,-1.259214040582D-1,2.5D1,1D1,1.625921404058D0,2.5D1;         141P    113
120,139,141,3.078760800518D0,6.346017160251D0;                       143P    114
508,4,0,81,2,0,0,0,81,18,1,0,0,81,10,1,0,0,81,19,0,0;                145P    115
510,143,1,0,145;                                                     147P    116
128,1,1,1,1,0,0,1,0,0,-1.04D1,-1.04D1,1.04D1,1.04D1,-3.706D1,        149P    117
-3.706D1,7.006D1,7.006D1,1D0,1D0,1D0,1D0,-1.04D1,1.5D0,3.706D1,      149P    118
1.04D1,1.5D0,3.706D1,-1.04D1,1.5D0,-7.006D1,1.04D1,1.5D0,            149P    119
-7.006D1,-1.04D1,1.04D1,-3.706D1,7.006D1;                            149P    120
508,8,0,81,9,0,0,0,81,16,0,0,0,81,15,0,0,0,81,14,0,0,0,81,13,0,      151P    121
0,0,81,12,0,0,0,81,11,0,0,0,81,10,0,0;                               151P    122
510,149,1,0,151;                                                     153P    123
514,10,87,0,93,1,103,1,109,1,115,1,121,1,131,1,137,1,147,1,153,      155P    124
1;                                                                   155P    125
186,155,1,0;                                                         157P    126
S      1G      4D    158P    126                                        T      1
