 PTC IGES file: mice33-011c.igs                                         S      1
1H,,1H;,11HMICE33-011C,15Hmice33-011c.igs,                              G      1
49HPro/ENGINEER by Parametric Technology Corporation,7H2004110,32,38,7, G      2
38,15,11HMICE33-011C,1.,2,2HMM,32768,0.5,13H080428.080942,0.315361,     G      3
3153.73,10Hliuxiaokun,7HUnknown,10,0,13H080428.080942;                  G      4
     314       1       1       1       0       0       0       001000200D      1
     314       0       4       1       0                   COLOR       1D      2
     314       2       1       1       0       0       0       001000200D      3
     314       0       1       1       0                   COLOR       2D      4
     314       3       1       1       0       0       0       001000200D      5
     314       0       1       1       0                   COLOR       3D      6
     314       4       1       1       0       0       0       001000200D      7
     314       0       1       1       0                   COLOR       4D      8
     314       5       1       1       0       0       0       001000200D      9
     314       0       8       1       0                   COLOR       5D     10
     314       6       1       1       0       0       0       001000200D     11
     314       0       8       1       0                   COLOR       6D     12
     314       7       1       1       0       0       0       001000200D     13
     314       0       5       1       0                   COLOR       7D     14
     314       8       1       1       0       0       0       001000200D     15
     314       0       8       1       0                   COLOR       8D     16
     110       9       1       1       0       0       0       001010000D     17
     110       0       0       2       0                    LINE       1D     18
     124      11       1       1       0       0       0       001000000D     19
     124       0       0       2       0                   XFORM       1D     20
     100      13       1       1       0       0      19       001010000D     21
     100       0       0       1       0                     ARC       1D     22
     110      14       1       1       0       0       0       001010000D     23
     110       0       0       2       0                    LINE       2D     24
     124      16       1       1       0       0       0       001000000D     25
     124       0       0       2       0                   XFORM       2D     26
     100      18       1       1       0       0      25       001010000D     27
     100       0       0       1       0                     ARC       2D     28
     110      19       1       1       0       0       0       001010000D     29
     110       0       0       2       0                    LINE       3D     30
     110      21       1       1       0       0       0       001010000D     31
     110       0       0       2       0                    LINE       4D     32
     110      23       1       1       0       0       0       001010000D     33
     110       0       0       2       0                    LINE       5D     34
     124      25       1       1       0       0       0       001000000D     35
     124       0       0       2       0                   XFORM       3D     36
     100      27       1       1       0       0      35       001010000D     37
     100       0       0       1       0                     ARC       3D     38
     110      28       1       1       0       0       0       001010000D     39
     110       0       0       2       0                    LINE       6D     40
     124      30       1       1       0       0       0       001000000D     41
     124       0       0       2       0                   XFORM       4D     42
     100      32       1       1       0       0      41       001010000D     43
     100       0       0       1       0                     ARC       4D     44
     110      33       1       1       0       0       0       001010000D     45
     110       0       0       2       0                    LINE       7D     46
     110      35       1       1       0       0       0       001010000D     47
     110       0       0       2       0                    LINE       8D     48
     502      37       1       1       0       0       0       001010000D     49
     502       0       0       6       1                  VERTEX       1D     50
     504      43       1       1       0       0       0       000010001D     51
     504       0       0       3       1                    EDGE       1D     52
     128      46       1       1       0       0       0       001010000D     53
     128       0       0       8       0                  SPLSRF       1D     54
     508      54       1       1       0       0       0       001010000D     55
     508       0       0       1       1                EDGELOOP       1D     56
     510      55       1       1       0       0       0       000010000D     57
     510       0       0       1       1                    FACE       1D     58
     128      56       1       1       0       0       0       001010000D     59
     128       0       0       9       0                  SPLSRF       2D     60
     508      65       1       1       0       0       0       001010000D     61
     508       0       0       1       1                EDGELOOP       2D     62
     510      66       1       1       0       0       0       000010000D     63
     510       0       0       1       1                    FACE       2D     64
     110      67       1       1       0       0       0       001010000D     65
     110       0       0       1       0                    LINE       9D     66
     110      68       1       1       0       0       0       001010000D     67
     110       0       0       2       0                    LINE      10D     68
     120      70       1       1       0       0       0       001010000D     69
     120       0       0       1       0                    SREV       1D     70
     508      71       1       1       0       0       0       001010000D     71
     508       0       0       1       1                EDGELOOP       3D     72
     510      72       1       1       0       0       0       000010000D     73
     510       0       0       1       1                    FACE       3D     74
     128      73       1       1       0       0       0       001010000D     75
     128       0       0       8       0                  SPLSRF       3D     76
     508      81       1       1       0       0       0       001010000D     77
     508       0       0       1       1                EDGELOOP       4D     78
     510      82       1       1       0       0       0       000010000D     79
     510       0       0       1       1                    FACE       4D     80
     110      83       1       1       0       0       0       001010000D     81
     110       0       0       1       0                    LINE      11D     82
     110      84       1       1       0       0       0       001010000D     83
     110       0       0       2       0                    LINE      12D     84
     120      86       1       1       0       0       0       001010000D     85
     120       0       0       1       0                    SREV       2D     86
     508      87       1       1       0       0       0       001010000D     87
     508       0       0       1       1                EDGELOOP       5D     88
     510      88       1       1       0       0       0       000010000D     89
     510       0       0       1       1                    FACE       5D     90
     128      89       1       1       0       0       0       001010000D     91
     128       0       0       9       0                  SPLSRF       4D     92
     508      98       1       1       0       0       0       001010000D     93
     508       0       0       1       1                EDGELOOP       6D     94
     510      99       1       1       0       0       0       000010000D     95
     510       0       0       1       1                    FACE       6D     96
     514     100       1       1       0       0       0       000000000D     97
     514       0       0       1       1                   SHELL       1D     98
     186     101       1       1       0       0       0       000000000D     99
     186       0       0       1       0                    MSBR       1D    100
314,1.1D0,1.2D0,1D2;                                                   1P      1
314,1.1D1,1.1D1,1.1D1;                                                 3P      2
314,3.92D1,1.2D0,1.2D0;                                                5P      3
314,4.1D1,0D0,2.2D1;                                                   7P      4
314,8.784D1,9.49D1,1D2;                                                9P      5
314,9.6D1,9.6D1,9.6D1;                                                11P      6
314,9.8D1,6.27D1,0D0;                                                 13P      7
314,1D2,1D2,9.49D1;                                                   15P      8
110,-2.445D2,2.999666230163D2,-6.262678221625D2,-2.445D2,             17P      9
5.964649179302D2,-9.420480888354D2;                                   17P     10
124,0D0,0D0,-1D0,-2.445D2,8.729152808828D-1,-4.878718196425D-1,       19P     11
0D0,0D0,-4.878718196425D-1,-8.729152808828D-1,0D0,0D0;                19P     12
100,0D0,0D0,0D0,6.944D2,0D0,5.673838709677D2,4.003334896879D2;        21P     13
110,-2.445D2,9.026506659589D2,-6.545584582327D2,-2.445D2,             23P     14
6.061523710450D2,-3.387781915597D2;                                   23P     15
124,0D0,0D0,1D0,-2.445D2,5.349461147356D-1,8.448861783277D-1,         25P     16
0D0,0D0,-8.448861783277D-1,5.349461147356D-1,0D0,0D0;                 25P     17
100,0D0,0D0,0D0,1.115D3,0D0,1.035896860987D3,4.124835674281D2;        27P     18
110,-2.595D2,2.999666230163D2,-6.262678221625D2,-2.445D2,             29P     19
2.999666230163D2,-6.262678221625D2;                                   29P     20
110,-2.595D2,6.061523710450D2,-3.387781915597D2,-2.445D2,             31P     21
6.061523710450D2,-3.387781915597D2;                                   31P     22
110,-2.595D2,2.999666230163D2,-6.262678221625D2,-2.595D2,             33P     23
5.964649179302D2,-9.420480888354D2;                                   33P     24
124,0D0,0D0,1D0,-2.595D2,5.349461147356D-1,8.448861783277D-1,         35P     25
0D0,0D0,-8.448861783277D-1,5.349461147356D-1,0D0,0D0;                 35P     26
100,0D0,0D0,0D0,1.115D3,0D0,1.035896860987D3,4.124835674281D2;        37P     27
110,-2.595D2,9.026506659589D2,-6.545584582327D2,-2.595D2,             39P     28
6.061523710450D2,-3.387781915597D2;                                   39P     29
124,0D0,0D0,-1D0,-2.595D2,8.729152808828D-1,-4.878718196425D-1,       41P     30
0D0,0D0,-4.878718196425D-1,-8.729152808828D-1,0D0,0D0;                41P     31
100,0D0,0D0,0D0,6.944D2,0D0,5.673838709677D2,4.003334896879D2;        43P     32
110,-2.595D2,5.964649179302D2,-9.420480888354D2,-2.445D2,             45P     33
5.964649179302D2,-9.420480888354D2;                                   45P     34
110,-2.595D2,9.026506659589D2,-6.545584582327D2,-2.445D2,             47P     35
9.026506659589D2,-6.545584582327D2;                                   47P     36
502,8,-2.445D2,2.999666230163D2,-6.262678221625D2,-2.445D2,           49P     37
5.964649179302D2,-9.420480888354D2,-2.445D2,9.026506659589D2,         49P     38
-6.545584582327D2,-2.445D2,6.061523710450D2,-3.387781915597D2,        49P     39
-2.595D2,2.999666230163D2,-6.262678221625D2,-2.595D2,                 49P     40
5.964649179302D2,-9.420480888354D2,-2.595D2,9.026506659589D2,         49P     41
-6.545584582327D2,-2.595D2,6.061523710450D2,-3.387781915597D2;        49P     42
504,12,17,49,1,49,2,23,49,3,49,4,33,49,5,49,6,39,49,7,49,8,45,        51P     43
49,6,49,2,47,49,7,49,3,29,49,5,49,1,31,49,8,49,4,27,49,2,49,3,        51P     44
21,49,4,49,1,37,49,6,49,7,43,49,8,49,5;                               51P     45
128,1,1,1,1,0,0,1,0,0,-9.147043468178D2,-9.147043468178D2,            53P     46
-2.879129421575D2,-2.879129421575D2,-9.541134867809D2,                53P     47
-9.541134867809D2,-3.267127936142D2,-3.267127936142D2,1D0,1D0,        53P     48
1D0,1D0,-2.445D2,9.147043468178D2,-9.541134867809D2,-2.445D2,         53P     49
2.879129421575D2,-9.541134867809D2,-2.445D2,9.147043468178D2,         53P     50
-3.267127936142D2,-2.445D2,2.879129421575D2,-3.267127936142D2,        53P     51
-9.147043468178D2,-2.879129421575D2,-9.541134867809D2,                53P     52
-3.267127936142D2;                                                    53P     53
508,4,0,51,1,0,0,0,51,10,0,0,0,51,2,0,0,0,51,9,0,0;                   55P     54
510,53,1,0,55;                                                        57P     55
128,1,1,1,1,0,0,1,0,0,1.663167634471D2,1.663167634471D2,              59P     56
6.168041599729D2,6.168041599729D2,-1.878447829958D1,                  59P     57
-1.878447829958D1,3.784478299581D0,3.784478299581D0,1D0,1D0,1D0,      59P     58
1D0,-2.632844782996D2,2.940366571181D2,-6.199522168290D2,             59P     59
-2.632844782996D2,6.023948838285D2,-9.483636941689D2,                 59P     60
-2.407155217004D2,2.940366571181D2,-6.199522168290D2,                 59P     61
-2.407155217004D2,6.023948838285D2,-9.483636941689D2,                 59P     62
1.663167634471D2,6.168041599729D2,-1.878447829958D1,                  59P     63
3.784478299581D0;                                                     59P     64
508,4,0,51,7,1,0,0,51,1,1,0,0,51,5,0,0,0,51,3,0,0;                    61P     65
510,59,1,0,61;                                                        63P     66
110,-2.445D2,0D0,0D0,-2.455D2,0D0,0D0;                                65P     67
110,-2.407155217004D2,-6.944D2,0D0,-2.632844782996D2,-6.944D2,        67P     68
0D0;                                                                  67P     69
120,65,67,3.638953532349D0,4.277991603608D0;                          69P     70
508,4,0,51,7,0,0,0,51,12,0,0,0,51,8,1,0,0,51,10,1,0;                  71P     71
510,69,1,0,71;                                                        73P     72
128,1,1,1,1,0,0,1,0,0,-9.147043468178D2,-9.147043468178D2,            75P     73
-2.879129421575D2,-2.879129421575D2,-9.541134867809D2,                75P     74
-9.541134867809D2,-3.267127936142D2,-3.267127936142D2,1D0,1D0,        75P     75
1D0,1D0,-2.595D2,9.147043468178D2,-9.541134867809D2,-2.595D2,         75P     76
2.879129421575D2,-9.541134867809D2,-2.595D2,9.147043468178D2,         75P     77
-3.267127936142D2,-2.595D2,2.879129421575D2,-3.267127936142D2,        75P     78
-9.147043468178D2,-2.879129421575D2,-9.541134867809D2,                75P     79
-3.267127936142D2;                                                    75P     80
508,4,0,51,3,1,0,0,51,11,1,0,0,51,4,1,0,0,51,12,1,0;                  77P     81
510,75,1,0,77;                                                        79P     82
110,-2.445D2,0D0,0D0,-2.455D2,0D0,0D0;                                81P     83
110,-2.407155217004D2,-1.115D3,0D0,-2.632844782996D2,-1.115D3,        83P     84
0D0;                                                                  83P     85
120,81,83,3.761421225497D0,4.155523910461D0;                          85P     86
508,4,0,51,5,1,0,0,51,9,1,0,0,51,6,0,0,0,51,11,0,0;                   87P     87
510,85,1,0,87;                                                        89P     88
128,1,1,1,1,0,0,1,0,0,2.554100181458D2,2.554100181458D2,              91P     89
7.058974146715D2,7.058974146715D2,-1.878447829958D1,                  91P     90
-1.878447829958D1,3.784478299581D0,3.784478299581D0,1D0,1D0,1D0,      91P     91
1D0,-2.632844782996D2,9.085806318572D2,-6.608740635661D2,             91P     92
-2.632844782996D2,6.002224051468D2,-3.324625862263D2,                 91P     93
-2.407155217004D2,9.085806318572D2,-6.608740635661D2,                 91P     94
-2.407155217004D2,6.002224051468D2,-3.324625862263D2,                 91P     95
2.554100181458D2,7.058974146715D2,-1.878447829958D1,                  91P     96
3.784478299581D0;                                                     91P     97
508,4,0,51,6,1,0,0,51,2,1,0,0,51,8,0,0,0,51,4,0,0;                    93P     98
510,91,1,0,93;                                                        95P     99
514,6,57,0,63,1,73,0,79,1,89,1,95,1;                                  97P    100
186,97,1,0;                                                           99P    101
S      1G      4D    100P    101                                        T      1
