 PTC IGES file: mice33-010.igs                                          S      1
1H,,1H;,10HMICE33-010,14Hmice33-010.igs,                                G      1
49HPro/ENGINEER by Parametric Technology Corporation,7H2004110,32,38,7, G      2
38,15,10HMICE33-010,1.,2,2HMM,32768,0.5,13H080428.080942,0.315361,      G      3
3153.73,10Hliuxiaokun,7HUnknown,10,0,13H080428.080942;                  G      4
     314       1       1       1       0       0       0       001000200D      1
     314       0       4       1       0                   COLOR       1D      2
     314       2       1       1       0       0       0       001000200D      3
     314       0       1       1       0                   COLOR       2D      4
     314       3       1       1       0       0       0       001000200D      5
     314       0       1       1       0                   COLOR       3D      6
     314       4       1       1       0       0       0       001000200D      7
     314       0       1       1       0                   COLOR       4D      8
     314       5       1       1       0       0       0       001000200D      9
     314       0       8       1       0                   COLOR       5D     10
     314       6       1       1       0       0       0       001000200D     11
     314       0       8       1       0                   COLOR       6D     12
     314       7       1       1       0       0       0       001000200D     13
     314       0       5       1       0                   COLOR       7D     14
     314       8       1       1       0       0       0       001000200D     15
     314       0       8       1       0                   COLOR       8D     16
     124       9       1       1       0       0       0       001000000D     17
     124       0       0       2       0                   XFORM       1D     18
     100      11       1       1       0       0      17       001010000D     19
     100       0       0       1       0                     ARC       1D     20
     110      12       1       1       0       0       0       001010000D     21
     110       0       0       2       0                    LINE       1D     22
     124      14       1       1       0       0       0       001000000D     23
     124       0       0       2       0                   XFORM       2D     24
     100      16       1       1       0       0      23       001010000D     25
     100       0       0       1       0                     ARC       2D     26
     110      17       1       1       0       0       0       001010000D     27
     110       0       0       2       0                    LINE       2D     28
     110      19       1       1       0       0       0       001010000D     29
     110       0       0       2       0                    LINE       3D     30
     110      21       1       1       0       0       0       001010000D     31
     110       0       0       2       0                    LINE       4D     32
     110      23       1       1       0       0       0       001010000D     33
     110       0       0       2       0                    LINE       5D     34
     110      25       1       1       0       0       0       001010000D     35
     110       0       0       2       0                    LINE       6D     36
     124      27       1       1       0       0       0       001000000D     37
     124       0       0       2       0                   XFORM       3D     38
     100      29       1       1       0       0      37       001010000D     39
     100       0       0       1       0                     ARC       3D     40
     110      30       1       1       0       0       0       001010000D     41
     110       0       0       2       0                    LINE       7D     42
     124      32       1       1       0       0       0       001000000D     43
     124       0       0       2       0                   XFORM       4D     44
     100      34       1       1       0       0      43       001010000D     45
     100       0       0       1       0                     ARC       4D     46
     110      35       1       1       0       0       0       001010000D     47
     110       0       0       2       0                    LINE       8D     48
     502      37       1       1       0       0       0       001010000D     49
     502       0       0       6       1                  VERTEX       1D     50
     504      43       1       1       0       0       0       000010001D     51
     504       0       0       3       1                    EDGE       1D     52
     128      46       1       1       0       0       0       001010000D     53
     128       0       0       8       0                  SPLSRF       1D     54
     508      54       1       1       0       0       0       001010000D     55
     508       0       0       1       1                EDGELOOP       1D     56
     510      55       1       1       0       0       0       000010000D     57
     510       0       0       1       1                    FACE       1D     58
     110      56       1       1       0       0       0       001010000D     59
     110       0       0       1       0                    LINE       9D     60
     110      57       1       1       0       0       0       001010000D     61
     110       0       0       1       0                    LINE      10D     62
     120      58       1       1       0       0       0       001010000D     63
     120       0       0       1       0                    SREV       1D     64
     508      59       1       1       0       0       0       001010000D     65
     508       0       0       1       1                EDGELOOP       2D     66
     510      60       1       1       0       0       0       000010000D     67
     510       0       0       1       1                    FACE       2D     68
     128      61       1       1       0       0       0       001010000D     69
     128       0       0       9       0                  SPLSRF       2D     70
     508      70       1       1       0       0       0       001010000D     71
     508       0       0       1       1                EDGELOOP       3D     72
     510      71       1       1       0       0       0       000010000D     73
     510       0       0       1       1                    FACE       3D     74
     110      72       1       1       0       0       0       001010000D     75
     110       0       0       1       0                    LINE      11D     76
     110      73       1       1       0       0       0       001010000D     77
     110       0       0       1       0                    LINE      12D     78
     120      74       1       1       0       0       0       001010000D     79
     120       0       0       1       0                    SREV       2D     80
     508      75       1       1       0       0       0       001010000D     81
     508       0       0       1       1                EDGELOOP       4D     82
     510      76       1       1       0       0       0       000010000D     83
     510       0       0       1       1                    FACE       4D     84
     128      77       1       1       0       0       0       001010000D     85
     128       0       0       9       0                  SPLSRF       3D     86
     508      86       1       1       0       0       0       001010000D     87
     508       0       0       1       1                EDGELOOP       5D     88
     510      87       1       1       0       0       0       000010000D     89
     510       0       0       1       1                    FACE       5D     90
     128      88       1       1       0       0       0       001010000D     91
     128       0       0       8       0                  SPLSRF       4D     92
     508      96       1       1       0       0       0       001010000D     93
     508       0       0       1       1                EDGELOOP       6D     94
     510      97       1       1       0       0       0       000010000D     95
     510       0       0       1       1                    FACE       6D     96
     514      98       1       1       0       0       0       000000000D     97
     514       0       0       1       1                   SHELL       1D     98
     186      99       1       1       0       0       0       000000000D     99
     186       0       0       1       0                    MSBR       1D    100
314,1.1D0,1.2D0,1D2;                                                   1P      1
314,1.1D1,1.1D1,1.1D1;                                                 3P      2
314,3.92D1,1.2D0,1.2D0;                                                5P      3
314,4.1D1,0D0,2.2D1;                                                   7P      4
314,8.784D1,9.49D1,1D2;                                                9P      5
314,9.6D1,9.6D1,9.6D1;                                                11P      6
314,9.8D1,6.27D1,0D0;                                                 13P      7
314,1D2,1D2,9.49D1;                                                   15P      8
124,0D0,0D0,1D0,2.445D2,8.483814985934D-1,-5.293853349352D-1,         17P      9
0D0,0D0,5.293853349352D-1,8.483814985934D-1,0D0,0D0;                  17P     10
100,0D0,0D0,0D0,1.115D3,0D0,1.035896860987D3,4.124835674281D2;        19P     11
110,2.445D2,3.427521135689D2,6.039141898019D2,2.445D2,                21P     12
6.604729798137D2,8.983320337915D2;                                    21P     13
124,0D0,0D0,-1D0,2.445D2,4.935946335958D-1,8.696920936087D-1,         23P     14
0D0,0D0,8.696920936087D-1,-4.935946335958D-1,0D0,0D0;                 23P     15
100,0D0,0D0,0D0,6.944D2,0D0,5.673838709677D2,4.003334896879D2;        25P     16
110,2.445D2,9.459453709316D2,5.902646484528D2,2.445D2,                27P     17
6.282245046868D2,2.958468044631D2;                                    27P     18
110,2.445D2,9.459453709316D2,5.902646484528D2,2.595D2,                29P     19
9.459453709316D2,5.902646484528D2;                                    29P     20
110,2.445D2,6.604729798137D2,8.983320337915D2,2.595D2,                31P     21
6.604729798137D2,8.983320337915D2;                                    31P     22
110,2.445D2,3.427521135689D2,6.039141898019D2,2.595D2,                33P     23
3.427521135689D2,6.039141898019D2;                                    33P     24
110,2.445D2,6.282245046868D2,2.958468044631D2,2.595D2,                35P     25
6.282245046868D2,2.958468044631D2;                                    35P     26
124,0D0,0D0,1D0,2.595D2,8.483814985934D-1,-5.293853349352D-1,         37P     27
0D0,0D0,5.293853349352D-1,8.483814985934D-1,0D0,0D0;                  37P     28
100,0D0,0D0,0D0,1.115D3,0D0,1.035896860987D3,4.124835674281D2;        39P     29
110,2.595D2,9.459453709316D2,5.902646484528D2,2.595D2,                41P     30
6.282245046868D2,2.958468044631D2;                                    41P     31
124,0D0,0D0,-1D0,2.595D2,4.935946335958D-1,8.696920936087D-1,         43P     32
0D0,0D0,8.696920936087D-1,-4.935946335958D-1,0D0,0D0;                 43P     33
100,0D0,0D0,0D0,6.944D2,0D0,5.673838709677D2,4.003334896879D2;        45P     34
110,2.595D2,3.427521135689D2,6.039141898019D2,2.595D2,                47P     35
6.604729798137D2,8.983320337915D2;                                    47P     36
502,8,2.445D2,9.459453709316D2,5.902646484528D2,2.445D2,              49P     37
6.604729798137D2,8.983320337915D2,2.445D2,3.427521135689D2,           49P     38
6.039141898019D2,2.445D2,6.282245046868D2,2.958468044631D2,           49P     39
2.595D2,9.459453709316D2,5.902646484528D2,2.595D2,                    49P     40
6.604729798137D2,8.983320337915D2,2.595D2,3.427521135689D2,           49P     41
6.039141898019D2,2.595D2,6.282245046868D2,2.958468044631D2;           49P     42
504,12,19,49,1,49,2,25,49,3,49,4,39,49,5,49,6,45,49,7,49,8,27,        51P     43
49,1,49,4,21,49,3,49,2,41,49,5,49,8,47,49,7,49,6,29,49,1,49,5,        51P     44
31,49,2,49,6,35,49,4,49,8,33,49,3,49,7;                               51P     45
128,1,1,1,1,0,0,1,0,0,-9.580092360788D2,-9.580092360788D2,            53P     46
-3.306882484216D2,-3.306882484216D2,-9.103817383781D2,                53P     47
-9.103817383781D2,-2.837970998766D2,-2.837970998766D2,1D0,1D0,        53P     48
1D0,1D0,2.445D2,9.580092360788D2,9.103817383781D2,2.445D2,            53P     49
3.306882484216D2,9.103817383781D2,2.445D2,9.580092360788D2,           53P     50
2.837970998766D2,2.445D2,3.306882484216D2,2.837970998766D2,           53P     51
-9.580092360788D2,-3.306882484216D2,-9.103817383781D2,                53P     52
-2.837970998766D2;                                                    53P     53
508,4,0,51,1,1,0,0,51,6,0,0,0,51,2,1,0,0,51,5,0,0;                    55P     54
510,53,1,0,55;                                                        57P     55
110,2.445D2,0D0,0D0,2.455D2,0D0,0D0;                                  59P     56
110,2.407155217004D2,-1.115D3,0D0,2.632844782996D2,-1.115D3,0D0;      61P     57
120,59,61,3.691889642300D0,4.085992327264D0;                          63P     58
508,4,0,51,1,0,0,0,51,9,1,0,0,51,3,1,0,0,51,10,0,0;                   65P     59
510,63,1,0,65;                                                        67P     60
128,1,1,1,1,0,0,1,0,0,8.765470743567D1,8.765470743567D1,              69P     61
5.381421039614D2,5.381421039614D2,-1.878447829958D1,                  69P     62
-1.878447829958D1,3.784478299581D0,3.784478299581D0,1D0,1D0,1D0,      69P     63
1D0,2.407155217004D2,9.522997882565D2,5.961530053326D2,               69P     64
2.407155217004D2,6.218700873619D2,2.899584475834D2,                   69P     65
2.632844782996D2,9.522997882565D2,5.961530053326D2,                   69P     66
2.632844782996D2,6.218700873619D2,2.899584475834D2,                   69P     67
8.765470743567D1,5.381421039614D2,-1.878447829958D1,                  69P     68
3.784478299581D0;                                                     69P     69
508,4,0,51,5,1,0,0,51,11,1,0,0,51,7,0,0,0,51,9,0,0;                   71P     70
510,69,1,0,71;                                                        73P     71
110,2.445D2,0D0,0D0,2.455D2,0D0,0D0;                                  75P     72
110,2.407155217004D2,-6.944D2,0D0,2.632844782996D2,-6.944D2,0D0;      77P     73
120,75,77,3.569421949153D0,4.208460020411D0;                          79P     74
508,4,0,51,2,0,0,0,51,12,1,0,0,51,4,1,0,0,51,11,0,0;                  81P     75
510,79,1,0,81;                                                        83P     76
128,1,1,1,1,0,0,1,0,0,1.120012762406D2,1.120012762406D2,              85P     77
5.624886727663D2,5.624886727663D2,-1.878447829958D1,                  85P     78
-1.878447829958D1,3.784478299581D0,3.784478299581D0,1D0,1D0,1D0,      85P     79
1D0,2.407155217004D2,3.363976962440D2,5.980258329221D2,               85P     80
2.407155217004D2,6.668273971386D2,9.042203906713D2,                   85P     81
2.632844782996D2,3.363976962440D2,5.980258329221D2,                   85P     82
2.632844782996D2,6.668273971386D2,9.042203906713D2,                   85P     83
1.120012762406D2,5.624886727663D2,-1.878447829958D1,                  85P     84
3.784478299581D0;                                                     85P     85
508,4,0,51,6,1,0,0,51,10,1,0,0,51,8,0,0,0,51,12,0,0;                  87P     86
510,85,1,0,87;                                                        89P     87
128,1,1,1,1,0,0,1,0,0,-9.580092360788D2,-9.580092360788D2,            91P     88
-3.306882484216D2,-3.306882484216D2,-9.103817383781D2,                91P     89
-9.103817383781D2,-2.837970998766D2,-2.837970998766D2,1D0,1D0,        91P     90
1D0,1D0,2.595D2,9.580092360788D2,9.103817383781D2,2.595D2,            91P     91
3.306882484216D2,9.103817383781D2,2.595D2,9.580092360788D2,           91P     92
2.837970998766D2,2.595D2,3.306882484216D2,2.837970998766D2,           91P     93
-9.580092360788D2,-3.306882484216D2,-9.103817383781D2,                91P     94
-2.837970998766D2;                                                    91P     95
508,4,0,51,3,0,0,0,51,7,1,0,0,51,4,0,0,0,51,8,1,0;                    93P     96
510,91,1,0,93;                                                        95P     97
514,6,57,0,67,1,73,0,83,0,89,0,95,1;                                  97P     98
186,97,1,0;                                                           99P     99
S      1G      4D    100P     99                                        T      1
