 PTC IGES file: mice33-009.igs                                          S      1
1H,,1H;,10HMICE33-009,14Hmice33-009.igs,                                G      1
49HPro/ENGINEER by Parametric Technology Corporation,7H2004110,32,38,7, G      2
38,15,10HMICE33-009,1.,2,2HMM,32768,0.5,13H080428.080942,0.319125,      G      3
3191.38,10Hliuxiaokun,7HUnknown,10,0,13H080428.080942;                  G      4
     314       1       1       1       0       0       0       001000200D      1
     314       0       4       1       0                   COLOR       1D      2
     314       2       1       1       0       0       0       001000200D      3
     314       0       1       1       0                   COLOR       2D      4
     314       3       1       1       0       0       0       001000200D      5
     314       0       1       1       0                   COLOR       3D      6
     314       4       1       1       0       0       0       001000200D      7
     314       0       1       1       0                   COLOR       4D      8
     314       5       1       1       0       0       0       001000200D      9
     314       0       8       1       0                   COLOR       5D     10
     314       6       1       1       0       0       0       001000200D     11
     314       0       8       1       0                   COLOR       6D     12
     314       7       1       1       0       0       0       001000200D     13
     314       0       5       1       0                   COLOR       7D     14
     314       8       1       1       0       0       0       001000200D     15
     314       0       8       1       0                   COLOR       8D     16
     110       9       1       1       0       0       0       001010000D     17
     110       0      -9       2       0                    LINE       1D     18
     124      11       1       1       0       0       0       001000000D     19
     124       0       0       2       0                   XFORM       1D     20
     100      13       1       1       0       0      19       001010000D     21
     100       0      -9       1       0                     ARC       1D     22
     110      14       1       1       0       0       0       001010000D     23
     110       0      -9       2       0                    LINE       2D     24
     124      16       1       1       0       0       0       001000000D     25
     124       0       0       2       0                   XFORM       2D     26
     100      18       1       1       0       0      25       001010000D     27
     100       0      -9       1       0                     ARC       2D     28
     124      19       1       1       0       0       0       001000000D     29
     124       0       0       3       0                   XFORM       3D     30
     104      22       1       1       0       0      29       001010000D     31
     104       0      -9       3       1                   CONIC       1D     32
     124      25       1       1       0       0       0       001000000D     33
     124       0       0       3       0                   XFORM       4D     34
     104      28       1       1       0       0      33       001010000D     35
     104       0      -9       3       1                   CONIC       2D     36
     124      31       1       1       0       0       0       001000000D     37
     124       0       0       3       0                   XFORM       5D     38
     104      34       1       1       0       0      37       001010000D     39
     104       0      -9       3       1                   CONIC       3D     40
     124      37       1       1       0       0       0       001000000D     41
     124       0       0       3       0                   XFORM       6D     42
     104      40       1       1       0       0      41       001010000D     43
     104       0      -9       3       1                   CONIC       4D     44
     110      43       1       1       0       0       0       001010000D     45
     110       0      -9       2       0                    LINE       3D     46
     124      45       1       1       0       0       0       001000000D     47
     124       0       0       2       0                   XFORM       7D     48
     100      47       1       1       0       0      47       001010000D     49
     100       0      -9       1       0                     ARC       3D     50
     110      48       1       1       0       0       0       001010000D     51
     110       0      -9       2       0                    LINE       4D     52
     124      50       1       1       0       0       0       001000000D     53
     124       0       0       2       0                   XFORM       8D     54
     100      52       1       1       0       0      53       001010000D     55
     100       0      -9       1       0                     ARC       4D     56
     502      53       1       1       0       0       0       001010000D     57
     502       0      -9       6       1                  VERTEX       1D     58
     504      59       1       1       0       0       0       000010001D     59
     504       0      -9       3       1                    EDGE       1D     60
     128      62       1       1       0       0       0       001010000D     61
     128       0      -9       8       0                  SPLSRF       1D     62
     508      70       1       1       0       0       0       001010000D     63
     508       0       0       1       1                EDGELOOP       1D     64
     510      71       1       1       0       0       0       000010000D     65
     510       0      -9       1       1                    FACE       1D     66
     128      72       1       1       0       0       0       001010000D     67
     128       0      -9       9       0                  SPLSRF       2D     68
     508      81       1       1       0       0       0       001010000D     69
     508       0       0       1       1                EDGELOOP       2D     70
     510      82       1       1       0       0       0       000010000D     71
     510       0      -9       1       1                    FACE       2D     72
     110      83       1       1       0       0       0       001010000D     73
     110       0      -9       1       0                    LINE       5D     74
     110      84       1       1       0       0       0       001010000D     75
     110       0      -9       1       0                    LINE       6D     76
     120      85       1       1       0       0       0       001010000D     77
     120       0      -9       1       0                    SREV       1D     78
     508      86       1       1       0       0       0       001010000D     79
     508       0       0       1       1                EDGELOOP       3D     80
     510      87       1       1       0       0       0       000010000D     81
     510       0      -9       1       1                    FACE       3D     82
     128      88       1       1       0       0       0       001010000D     83
     128       0      -9       9       0                  SPLSRF       3D     84
     508      97       1       1       0       0       0       001010000D     85
     508       0       0       1       1                EDGELOOP       4D     86
     510      98       1       1       0       0       0       000010000D     87
     510       0      -9       1       1                    FACE       4D     88
     110      99       1       1       0       0       0       001010000D     89
     110       0      -9       1       0                    LINE       7D     90
     110     100       1       1       0       0       0       001010000D     91
     110       0      -9       1       0                    LINE       8D     92
     120     101       1       1       0       0       0       001010000D     93
     120       0      -9       1       0                    SREV       2D     94
     508     102       1       1       0       0       0       001010000D     95
     508       0       0       1       1                EDGELOOP       5D     96
     510     103       1       1       0       0       0       000010000D     97
     510       0      -9       1       1                    FACE       5D     98
     128     104       1       1       0       0       0       001010000D     99
     128       0      -9       8       0                  SPLSRF       4D    100
     508     112       1       1       0       0       0       001010000D    101
     508       0       0       1       1                EDGELOOP       6D    102
     510     113       1       1       0       0       0       000010000D    103
     510       0      -9       1       1                    FACE       6D    104
     514     114       1       1       0       0       0       000000000D    105
     514       0      -9       1       1                   SHELL       1D    106
     186     115       1       1       0       0       0       000000000D    107
     186       0      -9       1       0                    MSBR       1D    108
314,1.1D0,1.2D0,1D2;                                                   1P      1
314,1.1D1,1.1D1,1.1D1;                                                 3P      2
314,3.92D1,1.2D0,1.2D0;                                                5P      3
314,4.1D1,0D0,2.2D1;                                                   7P      4
314,8.784D1,9.49D1,1D2;                                                9P      5
314,9.6D1,9.6D1,9.6D1;                                                11P      6
314,9.8D1,6.27D1,0D0;                                                 13P      7
314,1D2,1D2,9.49D1;                                                   15P      8
110,-2.445D2,5.714375503107D2,9.164382827528D2,-2.445D2,              17P      9
5.957564440432D2,9.424962914415D2;                                    17P     10
124,0D0,0D0,1D0,-2.445D2,8.091464829539D-1,-5.876069852575D-1,        19P     11
0D0,0D0,5.876069852575D-1,8.091464829539D-1,0D0,0D0;                  19P     12
100,0D0,0D0,0D0,1.08D3,0D0,1.000882220565D3,4.057521171328D2;         21P     13
110,-2.445D2,8.738782015902D2,6.346155440781D2,-2.445D2,              23P     14
8.981899940218D2,6.606661294777D2;                                    23P     15
124,0D0,0D0,-1D0,-2.445D2,5.343107121463D-1,8.452881537592D-1,        25P     16
0D0,0D0,8.452881537592D-1,-5.343107121463D-1,0D0,0D0;                 25P     17
100,0D0,0D0,0D0,1.115D3,0D0,1.038365788186D3,4.062283716395D2;        27P     18
124,9.866492591094D-1,0D0,-1.628595698719D-1,-1.491833069697D3,       29P     19
1.190641050401D-1,-6.822869435518D-1,7.213239671255D-1,0D0,           29P     20
-1.111169581561D-1,-7.310844866763D-1,-6.731779073554D-1,0D0;         29P     21
104,2.652323949887D-2,0D0,1D0,0D0,0D0,-1.243225D6,0D0,                31P     22
1.264211226209D3,-1.095826063884D3,1.759828078383D3,                  31P     23
-1.077535458097D3;                                                    31P     24
124,-9.865237743153D-1,0D0,-1.636179779569D-1,1.006658884353D3,       33P     25
-1.196181681681D-1,6.822895451487D-1,7.212298319016D-1,0D0,           33P     26
1.116348357583D-1,7.310820587190D-1,-6.730948572560D-1,0D0;           33P     27
104,2.677084271069D-2,0D0,1D0,0D0,0D0,-1.243225D6,0D0,                35P     28
1.268250109047D3,1.095520522308D3,7.725702149266D2,                   35P     29
1.107811548959D3;                                                     35P     30
124,-9.865237743153D-1,0D0,1.636179779569D-1,1.006658884353D3,        37P     31
-1.196181681681D-1,-6.822895451487D-1,-7.212298319016D-1,0D0,         37P     32
1.116348357583D-1,-7.310820587190D-1,6.730948572560D-1,0D0;           37P     33
104,2.677084271069D-2,0D0,1D0,0D0,0D0,-1.1664D6,0D0,                  39P     34
7.725702149266D2,-1.072577003299D3,1.268250109047D3,                  39P     35
-1.059877452726D3;                                                    39P     36
124,9.866492591094D-1,0D0,1.628595698719D-1,-1.491833069697D3,        41P     37
1.190641050401D-1,6.822869435518D-1,-7.213239671255D-1,0D0,           41P     38
-1.111169581561D-1,7.310844866763D-1,6.731779073554D-1,0D0;           41P     39
104,2.652323949887D-2,0D0,1D0,0D0,0D0,-1.1664D6,0D0,                  43P     40
1.759828078383D3,1.041276938886D3,1.264211226209D3,                   43P     41
1.060193266479D3;                                                     43P     42
110,2.445D2,6.393946418273D2,8.703875527618D2,2.445D2,                45P     43
6.634348039588D2,8.961468969405D2;                                    45P     44
124,0D0,0D0,-1D0,2.445D2,5.950087927882D-1,8.037191900812D-1,         47P     45
0D0,0D0,8.037191900812D-1,-5.950087927882D-1,0D0,0D0;                 47P     46
100,0D0,0D0,0D0,1.115D3,0D0,1.038097901046D3,4.069124572235D2;        49P     47
110,2.445D2,9.199820152010D2,5.657146734059D2,2.445D2,                51P     48
9.447207294510D2,5.922227143107D2;                                    51P     49
124,0D0,0D0,1D0,2.445D2,8.518351992602D-1,-5.238098827833D-1,         53P     50
0D0,0D0,5.238098827833D-1,8.518351992602D-1,0D0,0D0;                  53P     51
100,0D0,0D0,0D0,1.08D3,0D0,1.000576464115D3,4.065055220526D2;         55P     52
502,8,-2.445D2,5.714375503107D2,9.164382827528D2,-2.445D2,            57P     53
5.957564440432D2,9.424962914415D2,-2.445D2,8.738782015902D2,          57P     54
6.346155440781D2,-2.445D2,8.981899940218D2,6.606661294777D2,          57P     55
2.445D2,6.393946418273D2,8.703875527618D2,2.445D2,                    57P     56
6.634348039588D2,8.961468969405D2,2.445D2,9.199820152010D2,           57P     57
5.657146734059D2,2.445D2,9.447207294510D2,5.922227143107D2;           57P     58
504,12,17,57,1,57,2,23,57,3,57,4,45,57,5,57,6,51,57,7,57,8,31,        59P     59
57,4,57,8,39,57,5,57,1,43,57,7,57,3,27,57,2,57,4,49,57,6,57,8,        59P     60
21,57,3,57,1,55,57,7,57,5,35,57,2,57,6;                               59P     61
128,1,1,1,1,0,0,1,0,0,6.284579291308D2,6.284579291308D2,              61P     62
9.486539063888D2,9.486539063888D2,5.649025014365D2,                   61P     63
5.649025014365D2,9.047250428961D2,9.047250428961D2,1D0,1D0,1D0,       61P     64
1D0,-2.445D2,5.649025014365D2,6.284579291308D2,-2.445D2,              61P     65
5.649025014365D2,9.486539063888D2,-2.445D2,9.047250428961D2,          61P     66
6.284579291308D2,-2.445D2,9.047250428961D2,9.486539063888D2,          61P     67
6.284579291308D2,9.486539063888D2,5.649025014365D2,                   61P     68
9.047250428961D2;                                                     61P     69
508,4,0,59,1,0,0,0,59,10,0,0,0,59,2,1,0,0,59,8,0,0;                   63P     70
510,61,1,0,63;                                                        65P     71
128,1,1,1,1,0,0,1,0,0,6.591178225563D1,6.591178225563D1,              67P     72
5.816411839728D2,5.816411839728D2,-1.502153512153D4,                  67P     73
-1.502153512153D4,-1.496820614827D4,-1.496820614827D4,1D0,1D0,        67P     74
1D0,1D0,2.545071492415D2,6.309065867951D2,8.588599234175D2,           67P     75
-2.542668599097D2,5.676094816934D2,9.147106162830D2,                  67P     76
2.542668599097D2,6.672628725760D2,8.978745634104D2,                   67P     77
-2.545071492415D2,6.039657674743D2,9.537252562759D2,                  67P     78
6.591178225563D1,5.816411839728D2,-1.502153512153D4,                  67P     79
-1.496820614827D4;                                                    67P     80
508,4,0,59,1,1,0,0,59,12,1,0,0,59,3,0,0,0,59,6,1,0;                   69P     81
510,67,1,0,69;                                                        71P     82
110,-2.445D2,0D0,0D0,-2.455D2,0D0,0D0;                                73P     83
110,2.5428D2,0D0,1.115D3,-2.5428D2,0D0,1.115D3;                       75P     84
120,73,75,5.547489484986D-1,1.019792284752D0;                         77P     85
508,4,0,59,5,1,0,0,59,9,0,0,0,59,12,0,0,0,59,8,1,0;                   79P     86
510,77,1,0,79;                                                        81P     87
128,1,1,1,1,0,0,1,0,0,1.102994071289D2,1.102994071289D2,              83P     88
6.258179240982D2,6.258179240982D2,-1.504270700235D4,                  83P     89
-1.504270700235D4,-1.497823576395D4,-1.497823576395D4,1D0,1D0,        83P     90
1D0,1D0,-2.541686727470D2,8.556173014183D2,6.173877222144D2,          83P     91
2.544619861664D2,9.186026868640D2,5.618266263659D2,                   83P     92
-2.544591668227D2,8.995696714873D2,6.645538685421D2,                  83P     93
2.541714920907D2,9.625550569330D2,6.089927726936D2,                   83P     94
1.102994071289D2,6.258179240982D2,-1.504270700235D4,                  83P     95
-1.497823576395D4;                                                    83P     96
508,4,0,59,2,0,0,0,59,7,0,0,0,59,4,1,0,0,59,5,0,0;                    85P     97
510,83,1,0,85;                                                        87P     98
110,2.445D2,0D0,0D0,2.455D2,0D0,0D0;                                  89P     99
110,-2.5428D2,-1.08D3,0D0,2.5428D2,-1.08D3,0D0;                       91P    100
120,89,91,3.683671465695D0,4.164077544533D0;                          93P    101
508,4,0,59,6,0,0,0,59,11,0,0,0,59,7,1,0,0,59,10,1,0;                  95P    102
510,93,1,0,95;                                                        97P    103
128,1,1,1,1,0,0,1,0,0,5.591060289352D2,5.591060289352D2,              99P    104
9.027555414112D2,9.027555414112D2,6.332881200748D2,                   99P    105
6.332881200748D2,9.508272512035D2,9.508272512035D2,1D0,1D0,1D0,       99P    106
1D0,2.445D2,6.332881200748D2,5.591060289352D2,2.445D2,                99P    107
6.332881200748D2,9.027555414112D2,2.445D2,9.508272512035D2,           99P    108
5.591060289352D2,2.445D2,9.508272512035D2,9.027555414112D2,           99P    109
5.591060289352D2,9.027555414112D2,6.332881200748D2,                   99P    110
9.508272512035D2;                                                     99P    111
508,4,0,59,3,1,0,0,59,9,1,0,0,59,4,0,0,0,59,11,1,0;                  101P    112
510,99,1,0,101;                                                      103P    113
514,6,65,1,71,0,81,1,87,0,97,0,103,0;                                105P    114
186,105,1,0;                                                         107P    115
S      1G      4D    108P    115                                        T      1
