 PTC IGES file: mice33-006.igs                                          S      1
1H,,1H;,10HMICE33-006,14Hmice33-006.igs,                                G      1
49HPro/ENGINEER by Parametric Technology Corporation,7H2004110,32,38,7, G      2
38,15,10HMICE33-006,1.,2,2HMM,32768,0.5,13H080428.080942,0.316628,      G      3
3166.41,10Hliuxiaokun,7HUnknown,10,0,13H080428.080942;                  G      4
     314       1       1       1       0       0       0       001000200D      1
     314       0       4       1       0                   COLOR       1D      2
     314       2       1       1       0       0       0       001000200D      3
     314       0       1       1       0                   COLOR       2D      4
     314       3       1       1       0       0       0       001000200D      5
     314       0       1       1       0                   COLOR       3D      6
     314       4       1       1       0       0       0       001000200D      7
     314       0       1       1       0                   COLOR       4D      8
     314       5       1       1       0       0       0       001000200D      9
     314       0       8       1       0                   COLOR       5D     10
     314       6       1       1       0       0       0       001000200D     11
     314       0       8       1       0                   COLOR       6D     12
     314       7       1       1       0       0       0       001000200D     13
     314       0       5       1       0                   COLOR       7D     14
     314       8       1       1       0       0       0       001000200D     15
     314       0       8       1       0                   COLOR       8D     16
     124       9       1       1       0       0       0       001000000D     17
     124       0       0       4       0                   XFORM       1D     18
     100      13       1       1       0       0      17       001010000D     19
     100       0      -9       1       0                     ARC       1D     20
     110      14       1       1       0       0       0       001010000D     21
     110       0      -9       2       0                    LINE       1D     22
     124      16       1       1       0       0       0       001000000D     23
     124       0       0       2       0                   XFORM       2D     24
     104      18       1       1       0       0      23       001010000D     25
     104       0      -9       3       1                   CONIC       1D     26
     124      21       1       1       0       0       0       001000000D     27
     124       0       0       4       0                   XFORM       3D     28
     100      25       1       1       0       0      27       001010000D     29
     100       0      -9       1       0                     ARC       2D     30
     110      26       1       1       0       0       0       001010000D     31
     110       0      -9       2       0                    LINE       2D     32
     124      28       1       1       0       0       0       001000000D     33
     124       0       0       2       0                   XFORM       4D     34
     104      30       1       1       0       0      33       001010000D     35
     104       0      -9       3       1                   CONIC       2D     36
     124      33       1       1       0       0       0       001000000D     37
     124       0       0       2       0                   XFORM       5D     38
     104      35       1       1       0       0      37       001010000D     39
     104       0      -9       3       1                   CONIC       3D     40
     124      38       1       1       0       0       0       001000000D     41
     124       0       0       2       0                   XFORM       6D     42
     104      40       1       1       0       0      41       001010000D     43
     104       0      -9       3       1                   CONIC       4D     44
     124      43       1       1       0       0       0       001000000D     45
     124       0       0       4       0                   XFORM       7D     46
     100      47       1       1       0       0      45       001010000D     47
     100       0      -9       1       0                     ARC       3D     48
     110      48       1       1       0       0       0       001010000D     49
     110       0      -9       2       0                    LINE       3D     50
     124      50       1       1       0       0       0       001000000D     51
     124       0       0       4       0                   XFORM       8D     52
     100      54       1       1       0       0      51       001010000D     53
     100       0      -9       1       0                     ARC       4D     54
     110      55       1       1       0       0       0       001010000D     55
     110       0      -9       2       0                    LINE       4D     56
     502      57       1       1       0       0       0       001010000D     57
     502       0      -9       7       1                  VERTEX       1D     58
     504      64       1       1       0       0       0       000010001D     59
     504       0      -9       3       1                    EDGE       1D     60
     110      67       1       1       0       0       0       001010000D     61
     110       0      -9       2       0                    LINE       5D     62
     110      69       1       1       0       0       0       001010000D     63
     110       0      -9       2       0                    LINE       6D     64
     120      71       1       1       0       0       0       001010000D     65
     120       0      -9       1       0                    SREV       1D     66
     508      72       1       1       0       0       0       001010000D     67
     508       0       0       1       1                EDGELOOP       1D     68
     510      73       1       1       0       0       0       000010000D     69
     510       0      -9       1       1                    FACE       1D     70
     128      74       1       1       0       0       0       001010000D     71
     128       0      -9       9       0                  SPLSRF       1D     72
     508      83       1       1       0       0       0       001010000D     73
     508       0       0       1       1                EDGELOOP       2D     74
     508      84       1       1       0       0       0       001010000D     75
     508       0       0       1       1                EDGELOOP       3D     76
     510      85       1       1       0       0       0       000010000D     77
     510       0      -9       1       1                    FACE       2D     78
     110      86       1       1       0       0       0       001010000D     79
     110       0      -9       2       0                    LINE       7D     80
     110      88       1       1       0       0       0       001010000D     81
     110       0      -9       2       0                    LINE       8D     82
     120      90       1       1       0       0       0       001010000D     83
     120       0      -9       1       0                    SREV       2D     84
     508      91       1       1       0       0       0       001010000D     85
     508       0       0       1       1                EDGELOOP       4D     86
     510      92       1       1       0       0       0       000010000D     87
     510       0      -9       1       1                    FACE       3D     88
     128      93       1       1       0       0       0       001010000D     89
     128       0      -9       8       0                  SPLSRF       2D     90
     508     101       1       1       0       0       0       001010000D     91
     508       0       0       1       1                EDGELOOP       5D     92
     508     102       1       1       0       0       0       001010000D     93
     508       0       0       1       1                EDGELOOP       6D     94
     510     103       1       1       0       0       0       000010000D     95
     510       0      -9       1       1                    FACE       4D     96
     110     104       1       1       0       0       0       001010000D     97
     110       0      -9       2       0                    LINE       9D     98
     110     106       1       1       0       0       0       001010000D     99
     110       0      -9       2       0                    LINE      10D    100
     120     108       1       1       0       0       0       001010000D    101
     120       0      -9       1       0                    SREV       3D    102
     508     109       1       1       0       0       0       001010000D    103
     508       0       0       1       1                EDGELOOP       7D    104
     510     110       1       1       0       0       0       000010000D    105
     510       0      -9       1       1                    FACE       5D    106
     110     111       1       1       0       0       0       001010000D    107
     110       0      -9       2       0                    LINE      11D    108
     110     113       1       1       0       0       0       001010000D    109
     110       0      -9       2       0                    LINE      12D    110
     120     115       1       1       0       0       0       001010000D    111
     120       0      -9       1       0                    SREV       4D    112
     508     116       1       1       0       0       0       001010000D    113
     508       0       0       1       1                EDGELOOP       8D    114
     510     117       1       1       0       0       0       000010000D    115
     510       0      -9       1       1                    FACE       6D    116
     514     118       1       1       0       0       0       000000000D    117
     514       0      -9       1       1                   SHELL       1D    118
     186     119       1       1       0       0       0       000000000D    119
     186       0      -9       1       0                    MSBR       1D    120
314,1.1D0,1.2D0,1D2;                                                   1P      1
314,1.1D1,1.1D1,1.1D1;                                                 3P      2
314,3.92D1,1.2D0,1.2D0;                                                5P      3
314,4.1D1,0D0,2.2D1;                                                   7P      4
314,8.784D1,9.49D1,1D2;                                                9P      5
314,9.6D1,9.6D1,9.6D1;                                                11P      6
314,9.8D1,6.27D1,0D0;                                                 13P      7
314,1D2,1D2,9.49D1;                                                   15P      8
124,1.248801512428D-1,-1.068773027193D-1,9.863985958977D-1,           17P      9
5.721360140410D2,6.502201339285D-1,7.597458637163D-1,0D0,             17P     10
7.32722D2,-7.494122532088D-1,6.413762271315D-1,                       17P     11
1.643709524551D-1,7.310782904754D2;                                   17P     12
100,0D0,0D0,0D0,7.6D1,0D0,-7.6D1,7.680856818626D-14;                  19P     13
110,5.626451225466D2,6.833052698214D2,7.880336217193D2,2.345D2,       21P     14
6.833052698214D2,7.333523533550D2;                                    21P     15
124,0D0,0D0,-1D0,2.345D2,0D0,1D0,0D0,7.32722D2,1D0,0D0,0D0,           23P     16
6.748154840989D2;                                                     23P     17
104,9.729821899890D-1,0D0,1D0,0D0,0D0,-5.776D3,0D0,                   25P     18
5.853686925607D1,-4.941673017857D1,-5.853686925607D1,                 25P     19
4.941673017857D1;                                                     25P     20
124,-1.248801512428D-1,1.068773027193D-1,9.863985958977D-1,           27P     21
5.721360140410D2,-6.502201339285D-1,-7.597458637163D-1,0D0,           27P     22
7.32722D2,7.494122532088D-1,-6.413762271315D-1,                       27P     23
1.643709524551D-1,7.310782904754D2;                                   27P     24
100,0D0,0D0,0D0,7.6D1,0D0,-7.6D1,-5.819455160816D-14;                 29P     25
110,5.816269055355D2,7.821387301786D2,6.741229592316D2,2.345D2,       31P     26
7.821387301786D2,6.162786148429D2;                                    31P     27
124,0D0,0D0,-1D0,2.345D2,0D0,1D0,0D0,7.32722D2,1D0,0D0,0D0,           33P     28
6.748154840989D2;                                                     33P     29
104,9.729821899890D-1,0D0,1D0,0D0,0D0,-5.776D3,0D0,                   35P     30
-5.853686925607D1,4.941673017857D1,5.853686925607D1,                  35P     31
-4.941673017857D1;                                                    35P     32
124,0D0,0D0,-1D0,2.345D2,0D0,1D0,0D0,7.32722D2,1D0,0D0,0D0,           37P     33
6.748154840989D2;                                                     37P     34
104,9.729821899890D-1,0D0,1D0,0D0,0D0,-4.624D3,0D0,                   39P     35
5.237509354491D1,-4.421496910714D1,-5.237509354491D1,                 39P     36
4.421496910714D1;                                                     39P     37
124,0D0,0D0,-1D0,2.345D2,0D0,1D0,0D0,7.32722D2,1D0,0D0,0D0,           41P     38
6.748154840989D2;                                                     41P     39
104,9.729821899890D-1,0D0,1D0,0D0,0D0,-4.624D3,0D0,                   43P     40
-5.237509354491D1,4.421496910714D1,5.237509354491D1,                  43P     41
-4.421496910714D1;                                                    43P     42
124,-1.248801512428D-1,-1.068773027193D-1,-9.863985958977D-1,         45P     43
5.721360140410D2,-6.502201339285D-1,7.597458637163D-1,0D0,            45P     44
7.32722D2,7.494122532089D-1,6.413762271315D-1,                        45P     45
-1.643709524551D-1,7.310782904754D2;                                  45P     46
100,0D0,0D0,0D0,6.8D1,0D0,-6.8D1,4.612983172531D-13;                  47P     47
110,5.636441637565D2,6.885070308929D2,7.820383236937D2,2.345D2,       49P     48
6.885070308929D2,7.271905776438D2;                                    49P     49
124,1.248801512428D-1,1.068773027193D-1,-9.863985958977D-1,           51P     50
5.721360140410D2,6.502201339285D-1,-7.597458637163D-1,0D0,            51P     51
7.32722D2,-7.494122532088D-1,-6.413762271315D-1,                      51P     52
-1.643709524551D-1,7.310782904754D2;                                  51P     53
100,0D0,0D0,0D0,6.8D1,0D0,-6.8D1,-4.446436708411D-13;                 53P     54
110,5.806278643255D2,7.769369691071D2,6.801182572572D2,2.345D2,       55P     55
7.769369691071D2,6.224403905540D2;                                    55P     56
502,8,2.345D2,6.885070308929D2,7.271905776438D2,2.345D2,              57P     57
7.769369691071D2,6.224403905540D2,2.345D2,6.833052698214D2,           57P     58
7.333523533550D2,2.345D2,7.821387301786D2,6.162786148429D2,           57P     59
5.816269055355D2,7.821387301786D2,6.741229592316D2,                   57P     60
5.626451225466D2,6.833052698214D2,7.880336217193D2,                   57P     61
5.636441637565D2,6.885070308929D2,7.820383236937D2,                   57P     62
5.806278643255D2,7.769369691071D2,6.801182572572D2;                   57P     63
504,12,39,57,1,57,2,43,57,2,57,1,25,57,3,57,4,35,57,4,57,3,19,        59P     64
57,5,57,6,29,57,6,57,5,47,57,7,57,8,53,57,8,57,7,21,57,6,57,3,        59P     65
31,57,5,57,4,49,57,7,57,1,55,57,8,57,2;                               59P     66
110,5.82D2,7.32722D2,7.32722D2,5.810136014041D2,7.32722D2,            61P     67
7.325576290475D2;                                                     61P     68
110,5.695876606573D2,6.833052698214D2,7.891905086071D2,               63P     69
2.085756789004D2,6.833052698214D2,7.290323904428D2;                   63P     70
120,61,63,-6.283185307180D-2,3.204424506662D0;                        65P     71
508,4,0,59,5,1,0,0,59,9,1,0,0,59,3,1,0,0,59,10,0,0;                   67P     72
510,65,1,0,67;                                                        69P     73
128,1,1,1,1,0,0,1,0,0,-7.987584164159D1,-7.987584164159D1,            71P     74
7.987584164159D1,7.987584164159D1,-7.979969160521D1,                  71P     75
-7.979969160521D1,7.979969160521D1,7.979969160521D1,1D0,1D0,1D0,      71P     76
1D0,5.707075309913D2,6.201492935390D2,7.396506912156D2,               71P     77
5.536337019771D2,7.415199741351D2,8.421116231177D2,                   71P     78
5.906383261049D2,7.239240258649D2,6.200449578332D2,                   71P     79
5.735644970907D2,8.452947064610D2,7.225058897353D2,                   71P     80
-7.987584164159D1,7.987584164159D1,-7.979969160521D1,                 71P     81
7.979969160521D1;                                                     71P     82
508,2,0,59,5,0,0,0,59,6,0,0;                                          73P     83
508,2,0,59,7,0,0,0,59,8,0,0;                                          75P     84
510,71,2,0,73,75;                                                     77P     85
110,5.82D2,7.32722D2,7.32722D2,5.810136014041D2,7.32722D2,            79P     86
7.325576290475D2;                                                     79P     87
110,5.696478661601D2,6.833052698214D2,7.892005410989D2,               81P     88
2.055051982551D2,6.833052698214D2,7.285207333599D2;                   81P     89
120,79,81,3.078760800518D0,6.346017160251D0;                          83P     90
508,4,0,59,6,1,0,0,59,10,1,0,0,59,4,1,0,0,59,9,0,0;                   85P     91
510,83,1,0,85;                                                        87P     92
128,1,1,1,1,0,0,1,0,0,6.944613793261D2,6.944613793261D2,              89P     93
8.562673842009D2,8.562673842009D2,-1.347132112360D3,                  89P     94
-1.347132112360D3,-1.187423887640D3,-1.187423887640D3,1D0,1D0,        89P     95
1D0,1D0,2.345D2,6.528678876396D2,7.557184865363D2,2.345D2,            89P     96
6.528678876396D2,5.939124816616D2,2.345D2,8.125761123604D2,           89P     97
7.557184865363D2,2.345D2,8.125761123604D2,5.939124816616D2,           89P     98
6.944613793261D2,8.562673842009D2,-1.347132112360D3,                  89P     99
-1.187423887640D3;                                                    89P    100
508,2,0,59,3,0,0,0,59,4,0,0;                                          91P    101
508,2,0,59,1,1,0,0,59,2,1,0;                                          93P    102
510,89,2,0,91,93;                                                     95P    103
110,5.82D2,7.32722D2,7.32722D2,5.810136014041D2,7.32722D2,            97P    104
7.325576290475D2;                                                     97P    105
110,5.705667210430D2,6.885070308929D2,7.831918810277D2,               99P    106
2.105937421445D2,6.885070308929D2,7.232068996564D2;                   99P    107
120,97,99,-6.283185307180D-2,3.204424506662D0;                       101P    108
508,4,0,59,7,1,0,0,59,12,1,0,0,59,1,0,0,0,59,11,0,0;                 103P    109
510,101,1,0,103;                                                     105P    110
110,5.82D2,7.32722D2,7.32722D2,5.810136014041D2,7.32722D2,           107P    111
7.325576290475D2;                                                    107P    112
110,5.706204344420D2,6.885070308929D2,7.832008316919D2,              109P    113
2.078543587943D2,6.885070308929D2,7.227504157844D2;                  109P    114
120,107,109,3.078760800518D0,6.346017160251D0;                       111P    115
508,4,0,59,8,1,0,0,59,11,1,0,0,59,2,0,0,0,59,12,0,0;                 113P    116
510,111,1,0,113;                                                     115P    117
514,6,69,1,77,0,87,1,95,0,105,0,115,0;                               117P    118
186,117,1,0;                                                         119P    119
S      1G      4D    120P    119                                        T      1
