 PTC IGES file: mice31-002.igs                                          S      1
1H,,1H;,10HMICE31-002,14Hmice31-002.igs,                                G      1
49HPro/ENGINEER by Parametric Technology Corporation,7H2004110,32,38,7, G      2
38,15,10HMICE31-002,1.,2,2HMM,32768,0.5,13H080428.080954,0.0598959,     G      3
598.983,10Hliuxiaokun,7HUnknown,10,0,13H080428.080954;                  G      4
     314       1       1       1       0       0       0       001000200D      1
     314       0       4       1       0                   COLOR       1D      2
     314       2       1       1       0       0       0       001000200D      3
     314       0       1       1       0                   COLOR       2D      4
     314       3       1       1       0       0       0       001000200D      5
     314       0       1       1       0                   COLOR       3D      6
     314       4       1       1       0       0       0       001000200D      7
     314       0       1       1       0                   COLOR       4D      8
     314       5       1       1       0       0       0       001000200D      9
     314       0       8       1       0                   COLOR       5D     10
     314       6       1       1       0       0       0       001000200D     11
     314       0       8       1       0                   COLOR       6D     12
     314       7       1       1       0       0       0       001000200D     13
     314       0       5       1       0                   COLOR       7D     14
     314       8       1       1       0       0       0       001000200D     15
     314       0       8       1       0                   COLOR       8D     16
     110       9       1       1       0       0       0       001010000D     17
     110       0       8       2       0                    LINE       1D     18
     124      11       1       1       0       0       0       001000000D     19
     124       0       0       2       0                   XFORM       1D     20
     100      13       1       1       0       0      19       001010000D     21
     100       0       8       1       0                     ARC       1D     22
     124      14       1       1       0       0       0       001000000D     23
     124       0       0       2       0                   XFORM       2D     24
     100      16       1       1       0       0      23       001010000D     25
     100       0       8       1       0                     ARC       2D     26
     124      17       1       1       0       0       0       001000000D     27
     124       0       0       2       0                   XFORM       3D     28
     100      19       1       1       0       0      27       001010000D     29
     100       0       8       1       0                     ARC       3D     30
     110      20       1       1       0       0       0       001010000D     31
     110       0       8       2       0                    LINE       2D     32
     124      22       1       1       0       0       0       001000000D     33
     124       0       0       2       0                   XFORM       4D     34
     100      24       1       1       0       0      33       001010000D     35
     100       0       8       1       0                     ARC       4D     36
     110      25       1       1       0       0       0       001010000D     37
     110       0       8       2       0                    LINE       3D     38
     110      27       1       1       0       0       0       001010000D     39
     110       0       8       2       0                    LINE       4D     40
     110      29       1       1       0       0       0       001010000D     41
     110       0       8       2       0                    LINE       5D     42
     110      31       1       1       0       0       0       001010000D     43
     110       0       8       2       0                    LINE       6D     44
     110      33       1       1       0       0       0       001010000D     45
     110       0       8       2       0                    LINE       7D     46
     124      35       1       1       0       0       0       001000000D     47
     124       0       0       2       0                   XFORM       5D     48
     100      37       1       1       0       0      47       001010000D     49
     100       0       8       1       0                     ARC       5D     50
     124      38       1       1       0       0       0       001000000D     51
     124       0       0       2       0                   XFORM       6D     52
     100      40       1       1       0       0      51       001010000D     53
     100       0       8       1       0                     ARC       6D     54
     110      41       1       1       0       0       0       001010000D     55
     110       0       8       2       0                    LINE       8D     56
     110      43       1       1       0       0       0       001010000D     57
     110       0       8       2       0                    LINE       9D     58
     110      45       1       1       0       0       0       001010000D     59
     110       0       8       2       0                    LINE      10D     60
     110      47       1       1       0       0       0       001010000D     61
     110       0       8       2       0                    LINE      11D     62
     110      49       1       1       0       0       0       001010000D     63
     110       0       8       2       0                    LINE      12D     64
     110      51       1       1       0       0       0       001010000D     65
     110       0       8       2       0                    LINE      13D     66
     110      53       1       1       0       0       0       001010000D     67
     110       0       8       2       0                    LINE      14D     68
     110      55       1       1       0       0       0       001010000D     69
     110       0       8       2       0                    LINE      15D     70
     110      57       1       1       0       0       0       001010000D     71
     110       0       8       2       0                    LINE      16D     72
     124      59       1       1       0       0       0       001000000D     73
     124       0       0       2       0                   XFORM       7D     74
     100      61       1       1       0       0      73       001010000D     75
     100       0       8       1       0                     ARC       7D     76
     124      62       1       1       0       0       0       001000000D     77
     124       0       0       2       0                   XFORM       8D     78
     100      64       1       1       0       0      77       001010000D     79
     100       0       8       1       0                     ARC       8D     80
     502      65       1       1       0       0       0       001010000D     81
     502       0       8      10       1                  VERTEX       1D     82
     504      75       1       1       0       0       0       000010001D     83
     504       0       8       6       1                    EDGE       1D     84
     128      81       1       1       0       0       0       001010000D     85
     128       0       8       6       0                  SPLSRF       1D     86
     508      87       1       1       0       0       0       001010000D     87
     508       0       0       1       1                EDGELOOP       1D     88
     510      88       1       1       0       0       0       000010000D     89
     510       0       8       1       1                    FACE       1D     90
     110      89       1       1       0       0       0       001010000D     91
     110       0       8       1       0                    LINE      17D     92
     110      90       1       1       0       0       0       001010000D     93
     110       0       8       1       0                    LINE      18D     94
     120      91       1       1       0       0       0       001010000D     95
     120       0       8       1       0                    SREV       1D     96
     508      92       1       1       0       0       0       001010000D     97
     508       0       0       1       1                EDGELOOP       2D     98
     508      93       1       1       0       0       0       001010000D     99
     508       0       0       1       1                EDGELOOP       3D    100
     510      94       1       1       0       0       0       000010000D    101
     510       0       8       1       1                    FACE       2D    102
     128      95       1       1       0       0       0       001010000D    103
     128       0       8       6       0                  SPLSRF       2D    104
     508     101       1       1       0       0       0       001010000D    105
     508       0       0       1       1                EDGELOOP       4D    106
     510     102       1       1       0       0       0       000010000D    107
     510       0       8       1       1                    FACE       3D    108
     128     103       1       1       0       0       0       001010000D    109
     128       0       8       6       0                  SPLSRF       3D    110
     508     109       1       1       0       0       0       001010000D    111
     508       0       0       1       1                EDGELOOP       5D    112
     510     110       1       1       0       0       0       000010000D    113
     510       0       8       1       1                    FACE       4D    114
     110     111       1       1       0       0       0       001010000D    115
     110       0       8       1       0                    LINE      19D    116
     110     112       1       1       0       0       0       001010000D    117
     110       0       8       1       0                    LINE      20D    118
     120     113       1       1       0       0       0       001010000D    119
     120       0       8       1       0                    SREV       2D    120
     508     114       1       1       0       0       0       001010000D    121
     508       0       0       1       1                EDGELOOP       6D    122
     510     115       1       1       0       0       0       000010000D    123
     510       0       8       1       1                    FACE       5D    124
     128     116       1       1       0       0       0       001010000D    125
     128       0       8       6       0                  SPLSRF       4D    126
     508     122       1       1       0       0       0       001010000D    127
     508       0       0       1       1                EDGELOOP       7D    128
     510     123       1       1       0       0       0       000010000D    129
     510       0       8       1       1                    FACE       6D    130
     128     124       1       1       0       0       0       001010000D    131
     128       0       8       6       0                  SPLSRF       5D    132
     508     130       1       1       0       0       0       001010000D    133
     508       0       0       1       1                EDGELOOP       8D    134
     510     131       1       1       0       0       0       000010000D    135
     510       0       8       1       1                    FACE       7D    136
     128     132       1       1       0       0       0       001010000D    137
     128       0       8       6       0                  SPLSRF       6D    138
     508     138       1       1       0       0       0       001010000D    139
     508       0       0       1       1                EDGELOOP       9D    140
     510     139       1       1       0       0       0       000010000D    141
     510       0       8       1       1                    FACE       8D    142
     128     140       1       1       0       0       0       001010000D    143
     128       0       8       6       0                  SPLSRF       7D    144
     508     146       1       1       0       0       0       001010000D    145
     508       0       0       1       1                EDGELOOP      10D    146
     510     147       1       1       0       0       0       000010000D    147
     510       0       8       1       1                    FACE       9D    148
     128     148       1       1       0       0       0       001010000D    149
     128       0       8       6       0                  SPLSRF       8D    150
     508     154       1       1       0       0       0       001010000D    151
     508       0       0       1       1                EDGELOOP      11D    152
     510     155       1       1       0       0       0       000010000D    153
     510       0       8       1       1                    FACE      10D    154
     110     156       1       1       0       0       0       001010000D    155
     110       0       8       1       0                    LINE      21D    156
     110     157       1       1       0       0       0       001010000D    157
     110       0       8       1       0                    LINE      22D    158
     120     158       1       1       0       0       0       001010000D    159
     120       0       8       1       0                    SREV       3D    160
     508     159       1       1       0       0       0       001010000D    161
     508       0       0       1       1                EDGELOOP      12D    162
     510     160       1       1       0       0       0       000010000D    163
     510       0       8       1       1                    FACE      11D    164
     514     161       1       1       0       0       0       000000000D    165
     514       0       8       2       1                   SHELL       1D    166
     186     163       1       1       0       0       0       000000000D    167
     186       0       8       1       0                    MSBR       1D    168
314,1.1D0,1.2D0,1D2;                                                   1P      1
314,1.1D1,1.1D1,1.1D1;                                                 3P      2
314,3.92D1,1.2D0,1.2D0;                                                5P      3
314,4.1D1,0D0,2.2D1;                                                   7P      4
314,8.784D1,9.49D1,1D2;                                                9P      5
314,9.6D1,9.6D1,9.6D1;                                                11P      6
314,9.8D1,6.27D1,0D0;                                                 13P      7
314,1D2,1D2,9.49D1;                                                   15P      8
110,-1.455D2,-8.516905776161D2,-2.3D2,-1.455D2,                       17P      9
-9.731906288081D2,-2.3D2;                                             17P     10
124,0D0,0D0,-1D0,1.455D2,-9.654166601860D-1,-2.607118567218D-1,       19P     11
0D0,0D0,-2.607118567218D-1,9.654166601860D-1,0D0,0D0;                 19P     12
100,0D0,0D0,0D0,8.822D2,0D0,7.622725459080D2,4.440916636856D2;        21P     13
124,0D0,0D0,1D0,-1.455D2,-9.654166601860D-1,-2.607118567218D-1,       23P     14
0D0,0D0,2.607118567218D-1,-9.654166601860D-1,0D0,0D0;                 23P     15
100,0D0,0D0,0D0,8.822D2,0D0,7.622725459080D2,4.440916636856D2;        25P     16
124,0D0,0D0,1D0,-1.255D2,-9.712550428732D-1,-2.380412604852D-1,       27P     17
0D0,0D0,2.380412604852D-1,-9.712550428732D-1,0D0,0D0;                 27P     18
100,0D0,0D0,0D0,8.822D2,0D0,7.822226705962D2,4.079271180067D2;        29P     19
110,-1.255D2,-8.568411988227D2,2.1D2,1.255D2,-8.568411988227D2,       31P     20
2.1D2;                                                                31P     21
124,0D0,0D0,1D0,1.255D2,-9.712550428732D-1,-2.380412604852D-1,        33P     22
0D0,0D0,2.380412604852D-1,-9.712550428732D-1,0D0,0D0;                 33P     23
100,0D0,0D0,0D0,8.822D2,0D0,7.822226705962D2,4.079271180067D2;        35P     24
110,-1.255D2,-8.568411988227D2,-2.1D2,1.255D2,-8.568411988227D2,      37P     25
-2.1D2;                                                               37P     26
110,1.455D2,-8.516905776161D2,2.3D2,1.455D2,-9.731906288081D2,        39P     27
2.3D2;                                                                39P     28
110,1.455D2,-8.516905776161D2,-2.3D2,-1.455D2,-8.516905776161D2,      41P     29
-2.3D2;                                                               41P     30
110,1.455D2,-9.731906288081D2,-2.3D2,-1.455D2,-9.731906288081D2,      43P     31
-2.3D2;                                                               43P     32
110,1.455D2,-8.516905776161D2,-2.3D2,1.455D2,-9.731906288081D2,       45P     33
-2.3D2;                                                               45P     34
124,0D0,0D0,-1D0,-1.455D2,-9.731906288081D-1,-2.3D-1,0D0,0D0,         47P     35
-2.3D-1,9.731906288081D-1,0D0,0D0;                                    47P     36
100,0D0,0D0,0D0,1D3,0D0,8.942D2,4.476676892517D2;                     49P     37
124,0D0,0D0,1D0,1.455D2,-9.731906288081D-1,-2.3D-1,0D0,0D0,           51P     38
2.3D-1,-9.731906288081D-1,0D0,0D0;                                    51P     39
100,0D0,0D0,0D0,1D3,0D0,8.942D2,4.476676892517D2;                     53P     40
110,1.455D2,-8.516905776161D2,2.3D2,-1.455D2,-8.516905776161D2,       55P     41
2.3D2;                                                                55P     42
110,1.455D2,-9.731906288081D2,2.3D2,-1.455D2,-9.731906288081D2,       57P     43
2.3D2;                                                                57P     44
110,-1.455D2,-8.516905776161D2,2.3D2,-1.455D2,-9.731906288081D2,      59P     45
2.3D2;                                                                59P     46
110,-1.255D2,-8.568411988227D2,-2.1D2,-1.255D2,                       61P     47
-9.572356031824D2,-2.1D2;                                             61P     48
110,1.255D2,-8.568411988227D2,-2.1D2,1.255D2,-9.572356031824D2,       63P     49
-2.1D2;                                                               63P     50
110,1.255D2,-9.572356031824D2,-2.1D2,-1.255D2,-9.572356031824D2,      65P     51
-2.1D2;                                                               65P     52
110,1.255D2,-8.568411988227D2,2.1D2,1.255D2,-9.572356031824D2,        67P     53
2.1D2;                                                                67P     54
110,-1.255D2,-8.568411988227D2,2.1D2,-1.255D2,-9.572356031824D2,      69P     55
2.1D2;                                                                69P     56
110,1.255D2,-9.572356031824D2,2.1D2,-1.255D2,-9.572356031824D2,       71P     57
2.1D2;                                                                71P     58
124,0D0,0D0,-1D0,-1.255D2,-9.767710236555D-1,-2.142857142857D-1,      73P     59
0D0,0D0,-2.142857142857D-1,9.767710236555D-1,0D0,0D0;                 73P     60
100,0D0,0D0,0D0,9.8D2,0D0,8.9D2,4.102438299353D2;                     75P     61
124,0D0,0D0,1D0,1.255D2,-9.767710236555D-1,-2.142857142857D-1,        77P     62
0D0,0D0,2.142857142857D-1,-9.767710236555D-1,0D0,0D0;                 77P     63
100,0D0,0D0,0D0,9.8D2,0D0,8.9D2,4.102438299353D2;                     79P     64
502,16,1.455D2,-8.516905776161D2,2.3D2,-1.455D2,                      81P     65
-8.516905776161D2,2.3D2,1.455D2,-8.516905776161D2,-2.3D2,             81P     66
-1.455D2,-8.516905776161D2,-2.3D2,-1.455D2,-9.731906288081D2,         81P     67
-2.3D2,-1.455D2,-9.731906288081D2,2.3D2,1.455D2,                      81P     68
-9.731906288081D2,2.3D2,1.455D2,-9.731906288081D2,-2.3D2,             81P     69
1.255D2,-9.572356031824D2,2.1D2,-1.255D2,-9.572356031824D2,           81P     70
2.1D2,1.255D2,-9.572356031824D2,-2.1D2,-1.255D2,                      81P     71
-9.572356031824D2,-2.1D2,-1.255D2,-8.568411988227D2,2.1D2,            81P     72
-1.255D2,-8.568411988227D2,-2.1D2,1.255D2,-8.568411988227D2,          81P     73
2.1D2,1.255D2,-8.568411988227D2,-2.1D2;                               81P     74
504,24,55,81,1,81,2,41,81,3,81,4,17,81,4,81,5,59,81,2,81,6,25,        83P     75
81,2,81,4,39,81,1,81,7,45,81,3,81,8,21,81,3,81,1,57,81,7,81,6,        83P     76
43,81,8,81,5,53,81,7,81,8,49,81,5,81,6,71,81,9,81,10,65,81,11,        83P     77
81,12,79,81,9,81,11,75,81,12,81,10,29,81,13,81,14,31,81,13,81,        83P     78
15,35,81,15,81,16,37,81,14,81,16,61,81,14,81,12,69,81,13,81,10,       83P     79
67,81,15,81,9,63,81,16,81,11;                                         83P     80
128,1,1,1,1,0,0,1,0,0,-9.2D0,-9.2D0,4.692D2,4.692D2,                  85P     81
-3.133748272514D0,-3.133748272514D0,1.512788963184D2,                 85P     82
1.512788963184D2,1D0,1D0,1D0,1D0,-1.455D2,-1.003133748273D3,          85P     83
-2.392D2,-1.455D2,-1.003133748273D3,2.392D2,-1.455D2,                 85P     84
-8.487211036816D2,-2.392D2,-1.455D2,-8.487211036816D2,2.392D2,        85P     85
-9.2D0,4.692D2,-3.133748272514D0,1.512788963184D2;                    85P     86
508,4,0,83,5,0,0,0,83,4,1,0,0,83,12,0,0,0,83,3,0,0;                   87P     87
510,85,1,0,87;                                                        89P     88
110,3.272315D2,0D0,0D0,3.282315D2,0D0,0D0;                            91P     89
110,-1.5132D2,-8.822D2,0D0,1.5132D2,-8.822D2,0D0;                     93P     90
120,91,93,-2.743098660289D-1,2.743098660289D-1;                       95P     91
508,4,0,83,8,1,0,0,83,1,1,0,0,83,5,1,0,0,83,2,0,0;                    97P     92
508,4,0,83,17,0,0,0,83,18,1,0,0,83,19,1,0,0,83,20,0,0;                99P     93
510,95,2,0,97,99;                                                    101P     94
128,1,1,1,1,0,0,1,0,0,-9.2D0,-9.2D0,4.692D2,4.692D2,                 103P     95
-3.133748272514D0,-3.133748272514D0,1.512788963184D2,                103P     96
1.512788963184D2,1D0,1D0,1D0,1D0,1.455D2,-1.003133748273D3,          103P     97
2.392D2,1.455D2,-1.003133748273D3,-2.392D2,1.455D2,                  103P     98
-8.487211036816D2,2.392D2,1.455D2,-8.487211036816D2,-2.392D2,        103P     99
-9.2D0,4.692D2,-3.133748272514D0,1.512788963184D2;                   103P    100
508,4,0,83,8,0,0,0,83,7,1,0,0,83,11,0,0,0,83,6,0,0;                  105P    101
510,103,1,0,105;                                                     107P    102
128,1,1,1,1,0,0,1,0,0,-5.82D0,-5.82D0,2.9682D2,2.9682D2,             109P    103
2.437937016801D1,2.437937016801D1,1.507394234078D2,                  109P    104
1.507394234078D2,1D0,1D0,1D0,1D0,1.5132D2,-9.756206298320D2,         109P    105
-2.3D2,-1.5132D2,-9.756206298320D2,-2.3D2,1.5132D2,                  109P    106
-8.492605765922D2,-2.3D2,-1.5132D2,-8.492605765922D2,-2.3D2,         109P    107
-5.82D0,2.9682D2,2.437937016801D1,1.507394234078D2;                  109P    108
508,4,0,83,2,1,0,0,83,3,1,0,0,83,10,0,0,0,83,7,0,0;                  111P    109
510,109,1,0,111;                                                     113P    110
110,3.272315D2,0D0,0D0,3.282315D2,0D0,0D0;                           115P    111
110,-1.5132D2,-1D3,0D0,1.5132D2,-1D3,0D0;                            117P    112
120,115,117,-2.413607901772D-1,2.413607901772D-1;                    119P    113
508,4,0,83,12,1,0,0,83,9,0,0,0,83,11,1,0,0,83,10,1,0;                121P    114
510,119,1,0,121;                                                     123P    115
128,1,1,1,1,0,0,1,0,0,-5.82D0,-5.82D0,2.9682D2,2.9682D2,             125P    116
2.437937016801D1,2.437937016801D1,1.507394234078D2,                  125P    117
1.507394234078D2,1D0,1D0,1D0,1D0,-1.5132D2,-9.756206298320D2,        125P    118
2.3D2,1.5132D2,-9.756206298320D2,2.3D2,-1.5132D2,                    125P    119
-8.492605765922D2,2.3D2,1.5132D2,-8.492605765922D2,2.3D2,            125P    120
-5.82D0,2.9682D2,2.437937016801D1,1.507394234078D2;                  125P    121
508,4,0,83,1,0,0,0,83,6,1,0,0,83,9,1,0,0,83,4,0,0;                   127P    122
510,125,1,0,127;                                                     129P    123
128,1,1,1,1,0,0,1,0,0,1.16D1,1.16D1,4.484D2,4.484D2,                 131P    124
1.739511527685D1,1.739511527685D1,1.456247558028D2,                  131P    125
1.456247558028D2,1D0,1D0,1D0,1D0,-1.255D2,-9.826048847231D2,         131P    126
-2.184D2,-1.255D2,-9.826048847231D2,2.184D2,-1.255D2,                131P    127
-8.543752441972D2,-2.184D2,-1.255D2,-8.543752441972D2,2.184D2,       131P    128
1.16D1,4.484D2,1.739511527685D1,1.456247558028D2;                    131P    129
508,4,0,83,17,1,0,0,83,21,1,0,0,83,16,1,0,0,83,22,0,0;               133P    130
510,131,1,0,133;                                                     135P    131
128,1,1,1,1,0,0,1,0,0,1.498D1,1.498D1,2.7602D2,2.7602D2,             137P    132
4.075650873039D1,4.075650873039D1,1.451666892644D2,                  137P    133
1.451666892644D2,1D0,1D0,1D0,1D0,1.3052D2,-9.592434912696D2,         137P    134
-2.1D2,-1.3052D2,-9.592434912696D2,-2.1D2,1.3052D2,                  137P    135
-8.548333107356D2,-2.1D2,-1.3052D2,-8.548333107356D2,-2.1D2,         137P    136
1.498D1,2.7602D2,4.075650873039D1,1.451666892644D2;                  137P    137
508,4,0,83,20,1,0,0,83,24,1,0,0,83,14,1,0,0,83,21,0,0;               139P    138
510,137,1,0,139;                                                     141P    139
128,1,1,1,1,0,0,1,0,0,1.16D1,1.16D1,4.484D2,4.484D2,                 143P    140
1.739511527685D1,1.739511527685D1,1.456247558028D2,                  143P    141
1.456247558028D2,1D0,1D0,1D0,1D0,1.255D2,-9.826048847231D2,          143P    142
2.184D2,1.255D2,-9.826048847231D2,-2.184D2,1.255D2,                  143P    143
-8.543752441972D2,2.184D2,1.255D2,-8.543752441972D2,-2.184D2,        143P    144
1.16D1,4.484D2,1.739511527685D1,1.456247558028D2;                    143P    145
508,4,0,83,19,0,0,0,83,23,1,0,0,83,15,1,0,0,83,24,0,0;               145P    146
510,143,1,0,145;                                                     147P    147
128,1,1,1,1,0,0,1,0,0,1.498D1,1.498D1,2.7602D2,2.7602D2,             149P    148
4.075650873039D1,4.075650873039D1,1.451666892644D2,                  149P    149
1.451666892644D2,1D0,1D0,1D0,1D0,-1.3052D2,-9.592434912696D2,        149P    150
2.1D2,1.3052D2,-9.592434912696D2,2.1D2,-1.3052D2,                    149P    151
-8.548333107356D2,2.1D2,1.3052D2,-8.548333107356D2,2.1D2,            149P    152
1.498D1,2.7602D2,4.075650873039D1,1.451666892644D2;                  149P    153
508,4,0,83,18,0,0,0,83,22,1,0,0,83,13,0,0,0,83,23,0,0;               151P    154
510,149,1,0,151;                                                     153P    155
110,3.272315D2,0D0,0D0,3.282315D2,0D0,0D0;                           155P    156
110,-1.3052D2,-9.8D2,0D0,1.3052D2,-9.8D2,0D0;                        157P    157
120,155,157,-2.245989186324D-1,2.245989186324D-1;                    159P    158
508,4,0,83,16,0,0,0,83,14,0,0,0,83,15,0,0,0,83,13,1,0;               161P    159
510,159,1,0,161;                                                     163P    160
514,11,89,1,101,0,107,1,113,1,123,1,129,1,135,0,141,0,147,0,153,     165P    161
0,163,0;                                                             165P    162
186,165,1,0;                                                         167P    163
S      1G      4D    168P    163                                        T      1
