 PTC IGES file: mice31-001.igs                                          S      1
1H,,1H;,10HMICE31-001,14Hmice31-001.igs,                                G      1
49HPro/ENGINEER by Parametric Technology Corporation,7H2004110,32,38,7, G      2
38,15,10HMICE31-001,1.,2,2HMM,32768,0.5,13H080428.080954,0.254014,      G      3
2540.25,10Hliuxiaokun,7HUnknown,10,0,13H080428.080954;                  G      4
     314       1       1       1       0       0       0       001000200D      1
     314       0       4       1       0                   COLOR       1D      2
     314       2       1       1       0       0       0       001000200D      3
     314       0       1       1       0                   COLOR       2D      4
     314       3       1       1       0       0       0       001000200D      5
     314       0       1       1       0                   COLOR       3D      6
     314       4       1       1       0       0       0       001000200D      7
     314       0       1       1       0                   COLOR       4D      8
     314       5       1       1       0       0       0       001000200D      9
     314       0       8       1       0                   COLOR       5D     10
     314       6       1       1       0       0       0       001000200D     11
     314       0       8       1       0                   COLOR       6D     12
     314       7       1       1       0       0       0       001000200D     13
     314       0       5       1       0                   COLOR       7D     14
     314       8       1       1       0       0       0       001000200D     15
     314       0       8       1       0                   COLOR       8D     16
     110       9       1       1       0       0       0       001010000D     17
     110       0       8       2       0                    LINE       1D     18
     124      11       1       1       0       0       0       001000000D     19
     124       0       0       2       0                   XFORM       1D     20
     100      13       1       1       0       0      19       001010000D     21
     100       0       8       1       0                     ARC       1D     22
     110      14       1       1       0       0       0       001010000D     23
     110       0       8       2       0                    LINE       2D     24
     124      16       1       1       0       0       0       001000000D     25
     124       0       0       3       0                   XFORM       2D     26
     100      19       1       1       0       0      25       001010000D     27
     100       0       8       1       0                     ARC       2D     28
     110      20       1       1       0       0       0       001010000D     29
     110       0       8       2       0                    LINE       3D     30
     124      22       1       1       0       0       0       001000000D     31
     124       0       0       3       0                   XFORM       3D     32
     100      25       1       1       0       0      31       001010000D     33
     100       0       8       1       0                     ARC       3D     34
     110      26       1       1       0       0       0       001010000D     35
     110       0       8       2       0                    LINE       4D     36
     110      28       1       1       0       0       0       001010000D     37
     110       0       8       2       0                    LINE       5D     38
     124      30       1       1       0       0       0       001000000D     39
     124       0       0       2       0                   XFORM       4D     40
     100      32       1       1       0       0      39       001010000D     41
     100       0       8       1       0                     ARC       4D     42
     110      33       1       1       0       0       0       001010000D     43
     110       0       8       2       0                    LINE       6D     44
     110      35       1       1       0       0       0       001010000D     45
     110       0       8       2       0                    LINE       7D     46
     110      37       1       1       0       0       0       001010000D     47
     110       0       8       2       0                    LINE       8D     48
     502      39       1       1       0       0       0       001010000D     49
     502       0       8       5       1                  VERTEX       1D     50
     504      44       1       1       0       0       0       001010001D     51
     504       0       8       3       1                    EDGE       1D     52
     128      47       1       1       0       0       0       001010000D     53
     128       0       8       6       0                  SPLSRF       1D     54
     508      53       1       1       0       0       0       001010000D     55
     508       0       0       1       1                EDGELOOP       1D     56
     510      54       1       1       0       0       0       001010000D     57
     510       0       8       1       1                    FACE       1D     58
     110      55       1       1       0       0       0       001010000D     59
     110       0       8       2       0                    LINE       9D     60
     110      57       1       1       0       0       0       001010000D     61
     110       0       8       1       0                    LINE      10D     62
     120      58       1       1       0       0       0       001010000D     63
     120       0       8       1       0                    SREV       1D     64
     508      59       1       1       0       0       0       001010000D     65
     508       0       0       1       1                EDGELOOP       2D     66
     510      60       1       1       0       0       0       001010000D     67
     510       0       8       1       1                    FACE       2D     68
     128      61       1       1       0       0       0       001010000D     69
     128       0       8       6       0                  SPLSRF       2D     70
     508      67       1       1       0       0       0       001010000D     71
     508       0       0       1       1                EDGELOOP       3D     72
     510      68       1       1       0       0       0       001010000D     73
     510       0       8       1       1                    FACE       3D     74
     128      69       1       1       0       0       0       001010000D     75
     128       0       8       7       0                  SPLSRF       3D     76
     508      76       1       1       0       0       0       001010000D     77
     508       0       0       1       1                EDGELOOP       4D     78
     510      77       1       1       0       0       0       001010000D     79
     510       0       8       1       1                    FACE       4D     80
     110      78       1       1       0       0       0       001010000D     81
     110       0       8       1       0                    LINE      11D     82
     110      79       1       1       0       0       0       001010000D     83
     110       0       8       1       0                    LINE      12D     84
     120      80       1       1       0       0       0       001010000D     85
     120       0       8       1       0                    SREV       2D     86
     508      81       1       1       0       0       0       001010000D     87
     508       0       0       1       1                EDGELOOP       5D     88
     510      82       1       1       0       0       0       001010000D     89
     510       0       8       1       1                    FACE       5D     90
     128      83       1       1       0       0       0       001010000D     91
     128       0       8       6       0                  SPLSRF       4D     92
     508      89       1       1       0       0       0       001010000D     93
     508       0       0       1       1                EDGELOOP       6D     94
     510      90       1       1       0       0       0       001010000D     95
     510       0       8       1       1                    FACE       6D     96
     514      91       1       1       0       0       0       001000000D     97
     514       0       8       1       1                   SHELL       1D     98
     186      92       1       1       0       0       0       000000000D     99
     186       0       8       1       0                    MSBR       1D    100
314,1.1D0,1.2D0,1D2;                                                   1P      1
314,1.1D1,1.1D1,1.1D1;                                                 3P      2
314,3.92D1,1.2D0,1.2D0;                                                5P      3
314,4.1D1,0D0,2.2D1;                                                   7P      4
314,8.784D1,9.49D1,1D2;                                                9P      5
314,9.6D1,9.6D1,9.6D1;                                                11P      6
314,9.8D1,6.27D1,0D0;                                                 13P      7
314,1D2,1D2,9.49D1;                                                   15P      8
110,-1.455D2,-8.620445696134D2,2.3D2,-1.455D2,-8.516905776161D2,      17P      9
2.3D2;                                                                17P     10
124,0D0,0D0,-1D0,-1.455D2,-9.662010419339D-1,-2.577897332437D-1,      19P     11
0D0,0D0,-2.577897332437D-1,9.662010419339D-1,0D0,0D0;                 19P     12
100,0D0,0D0,0D0,8.922D2,0D0,7.736167227079D2,4.444524792896D2;        21P     13
110,-1.455D2,-8.620445696134D2,-2.3D2,-1.455D2,                       23P     14
-8.516905776161D2,-2.3D2;                                             23P     15
124,0D0,0D0,-1D0,1.455D2,-9.654166601860D-1,-2.607118567218D-1,       25P     16
0D0,5.462968944402D-14,-2.607118567218D-1,9.654166601860D-1,0D0,      25P     17
0D0;                                                                  25P     18
100,0D0,0D0,0D0,8.822D2,0D0,7.622725459080D2,4.440916636856D2;        27P     19
110,1.455D2,-8.516905776161D2,2.3D2,-1.455D2,-8.516905776161D2,       29P     20
2.3D2;                                                                29P     21
124,0D0,0D0,1D0,-1.455D2,-9.654166601860D-1,-2.607118567218D-1,       31P     22
0D0,5.462968944402D-14,2.607118567218D-1,-9.654166601860D-1,0D0,      31P     23
0D0;                                                                  31P     24
100,0D0,0D0,0D0,8.822D2,0D0,7.622725459080D2,4.440916636856D2;        33P     25
110,1.455D2,-8.516905776161D2,-2.3D2,-1.455D2,-8.516905776161D2,      35P     26
-2.3D2;                                                               35P     27
110,1.455D2,-8.620445696134D2,-2.3D2,1.455D2,-8.516905776161D2,       37P     28
-2.3D2;                                                               37P     29
124,0D0,0D0,-1D0,1.455D2,-9.662010419339D-1,-2.577897332437D-1,       39P     30
0D0,0D0,-2.577897332437D-1,9.662010419339D-1,0D0,0D0;                 39P     31
100,0D0,0D0,0D0,8.922D2,0D0,7.736167227079D2,4.444524792896D2;        41P     32
110,1.455D2,-8.620445696134D2,2.3D2,1.455D2,-8.516905776161D2,        43P     33
2.3D2;                                                                43P     34
110,1.455D2,-8.620445696134D2,-2.3D2,-1.455D2,-8.620445696134D2,      45P     35
-2.3D2;                                                               45P     36
110,1.455D2,-8.620445696134D2,2.3D2,-1.455D2,-8.620445696134D2,       47P     37
2.3D2;                                                                47P     38
502,8,1.455D2,-8.516905776161D2,-2.3D2,1.455D2,                       49P     39
-8.516905776161D2,2.3D2,-1.455D2,-8.516905776161D2,2.3D2,             49P     40
-1.455D2,-8.516905776161D2,-2.3D2,-1.455D2,-8.620445696134D2,         49P     41
-2.3D2,-1.455D2,-8.620445696134D2,2.3D2,1.455D2,                      49P     42
-8.620445696134D2,-2.3D2,1.455D2,-8.620445696134D2,2.3D2;             49P     43
504,12,27,49,1,49,2,33,49,3,49,4,23,49,5,49,4,17,49,6,49,3,37,        51P     44
49,7,49,1,43,49,8,49,2,45,49,7,49,5,47,49,8,49,6,35,49,1,49,4,        51P     45
29,49,2,49,3,21,49,5,49,6,41,49,7,49,8;                               51P     46
128,1,1,1,1,0,0,1,0,0,-2.392D2,-2.392D2,2.392D2,2.392D2,              53P     47
-8.952482947228D2,-8.952482947228D2,-8.486422828933D2,                53P     48
-8.486422828933D2,1D0,1D0,1D0,1D0,-1.455D2,-8.952482947228D2,         53P     49
-2.392D2,-1.455D2,-8.952482947228D2,2.392D2,-1.455D2,                 53P     50
-8.486422828933D2,-2.392D2,-1.455D2,-8.486422828933D2,2.392D2,        53P     51
-2.392D2,2.392D2,-8.952482947228D2,-8.486422828933D2;                 53P     52
508,4,0,51,2,0,0,0,51,4,0,0,0,51,11,0,0,0,51,3,1,0;                   55P     53
510,53,1,0,55;                                                        57P     54
110,2.685745602299D3,5.462968944402D-14,0D0,2.684745602299D3,         59P     55
5.462968944402D-14,0D0;                                               59P     56
110,1.5132D2,8.822D2,0D0,-1.5132D2,8.822D2,0D0;                       61P     57
120,59,61,2.867282787561D0,3.415902519619D0;                          63P     58
508,4,0,51,1,1,0,0,51,10,1,0,0,51,2,1,0,0,51,9,0,0;                   65P     59
510,63,1,0,65;                                                        67P     60
128,1,1,1,1,0,0,1,0,0,-2.392D2,-2.392D2,2.392D2,2.392D2,              69P     61
-8.952482947228D2,-8.952482947228D2,-8.486422828933D2,                69P     62
-8.486422828933D2,1D0,1D0,1D0,1D0,1.455D2,-8.952482947228D2,          69P     63
-2.392D2,1.455D2,-8.952482947228D2,2.392D2,1.455D2,                   69P     64
-8.486422828933D2,-2.392D2,1.455D2,-8.486422828933D2,2.392D2,         69P     65
-2.392D2,2.392D2,-8.952482947228D2,-8.486422828933D2;                 69P     66
508,4,0,51,1,0,0,0,51,5,0,0,0,51,12,1,0,0,51,6,1,0;                   71P     67
510,69,1,0,71;                                                        73P     68
128,1,1,1,1,0,0,1,0,0,1.313725788198D2,1.313725788198D2,              75P     69
1.478231602627D2,1.478231602627D2,-4.625295D2,-4.625295D2,            75P     70
-1.598895D2,-1.598895D2,1D0,1D0,1D0,1D0,-1.5132D2,                    75P     71
-8.486422828933D2,-2.3D2,-1.5132D2,-8.650928643362D2,-2.3D2,          75P     72
1.5132D2,-8.486422828933D2,-2.3D2,1.5132D2,-8.650928643362D2,         75P     73
-2.3D2,1.313725788198D2,1.478231602627D2,-4.625295D2,                 75P     74
-1.598895D2;                                                          75P     75
508,4,0,51,3,0,0,0,51,7,0,0,0,51,5,1,0,0,51,9,1,0;                    77P     76
510,75,1,0,77;                                                        79P     77
110,-1.455D2,0D0,0D0,-1.465D2,0D0,0D0;                                81P     78
110,1.5132D2,0D0,8.922D2,-1.5132D2,0D0,8.922D2;                       83P     79
120,81,83,4.441225706040D0,4.983552254730D0;                          85P     80
508,4,0,51,7,1,0,0,51,11,1,0,0,51,8,0,0,0,51,12,0,0;                  87P     81
510,85,1,0,87;                                                        89P     82
128,1,1,1,1,0,0,1,0,0,3.428441356638D2,3.428441356638D2,              91P     83
3.592947171067D2,3.592947171067D2,-4.625295D2,-4.625295D2,            91P     84
-1.598895D2,-1.598895D2,1D0,1D0,1D0,1D0,-1.5132D2,                    91P     85
-8.650928643362D2,2.3D2,-1.5132D2,-8.486422828933D2,2.3D2,            91P     86
1.5132D2,-8.650928643362D2,2.3D2,1.5132D2,-8.486422828933D2,          91P     87
2.3D2,3.428441356638D2,3.592947171067D2,-4.625295D2,-1.598895D2;      91P     88
508,4,0,51,4,1,0,0,51,10,0,0,0,51,6,0,0,0,51,8,1,0;                   93P     89
510,91,1,0,93;                                                        95P     90
514,6,57,1,67,0,73,0,79,0,89,1,95,0;                                  97P     91
186,97,1,0;                                                           99P     92
S      1G      4D    100P     92                                        T      1
