 PTC IGES file: mice30-001.igs                                          S      1
1H,,1H;,10HMICE30-001,14Hmice30-001.igs,                                G      1
49HPro/ENGINEER by Parametric Technology Corporation,7H2004110,32,38,7, G      2
38,15,10HMICE30-001,1.,2,2HMM,32768,0.5,13H080428.080952,0.251767,      G      3
2517.77,10Hliuxiaokun,7HUnknown,10,0,13H080428.080952;                  G      4
     314       1       1       1       0       0       0       001000200D      1
     314       0       4       1       0                   COLOR       1D      2
     314       2       1       1       0       0       0       001000200D      3
     314       0       1       1       0                   COLOR       2D      4
     314       3       1       1       0       0       0       001000200D      5
     314       0       1       1       0                   COLOR       3D      6
     314       4       1       1       0       0       0       001000200D      7
     314       0       1       1       0                   COLOR       4D      8
     314       5       1       1       0       0       0       001000200D      9
     314       0       8       1       0                   COLOR       5D     10
     314       6       1       1       0       0       0       001000200D     11
     314       0       8       1       0                   COLOR       6D     12
     314       7       1       1       0       0       0       001000200D     13
     314       0       5       1       0                   COLOR       7D     14
     314       8       1       1       0       0       0       001000200D     15
     314       0       8       1       0                   COLOR       8D     16
     110       9       1       1       0       0       0       001010000D     17
     110       0       8       2       0                    LINE       1D     18
     110      11       1       1       0       0       0       001010000D     19
     110       0       8       2       0                    LINE       2D     20
     124      13       1       1       0       0       0       001000000D     21
     124       0       0       2       0                   XFORM       1D     22
     100      15       1       1       0       0      21       001010000D     23
     100       0       8       1       0                     ARC       1D     24
     110      16       1       1       0       0       0       001010000D     25
     110       0       8       2       0                    LINE       3D     26
     110      18       1       1       0       0       0       001010000D     27
     110       0       8       2       0                    LINE       4D     28
     124      20       1       1       0       0       0       001000000D     29
     124       0       0       3       0                   XFORM       2D     30
     100      23       1       1       0       0      29       001010000D     31
     100       0       8       1       0                     ARC       2D     32
     110      24       1       1       0       0       0       001010000D     33
     110       0       8       2       0                    LINE       5D     34
     124      26       1       1       0       0       0       001000000D     35
     124       0       0       3       0                   XFORM       3D     36
     100      29       1       1       0       0      35       001010000D     37
     100       0       8       1       0                     ARC       3D     38
     110      30       1       1       0       0       0       001010000D     39
     110       0       8       2       0                    LINE       6D     40
     110      32       1       1       0       0       0       001010000D     41
     110       0       8       2       0                    LINE       7D     42
     124      34       1       1       0       0       0       001000000D     43
     124       0       0       2       0                   XFORM       4D     44
     100      36       1       1       0       0      43       001010000D     45
     100       0       8       1       0                     ARC       4D     46
     110      37       1       1       0       0       0       001010000D     47
     110       0       8       2       0                    LINE       8D     48
     502      39       1       1       0       0       0       001010000D     49
     502       0       8       5       1                  VERTEX       1D     50
     504      44       1       1       0       0       0       001010001D     51
     504       0       8       3       1                    EDGE       1D     52
     128      47       1       1       0       0       0       001010000D     53
     128       0       8       6       0                  SPLSRF       1D     54
     508      53       1       1       0       0       0       001010000D     55
     508       0       0       1       1                EDGELOOP       1D     56
     510      54       1       1       0       0       0       001010000D     57
     510       0       8       1       1                    FACE       1D     58
     128      55       1       1       0       0       0       001010000D     59
     128       0       8       6       0                  SPLSRF       2D     60
     508      61       1       1       0       0       0       001010000D     61
     508       0       0       1       1                EDGELOOP       2D     62
     510      62       1       1       0       0       0       001010000D     63
     510       0       8       1       1                    FACE       2D     64
     110      63       1       1       0       0       0       001010000D     65
     110       0       8       1       0                    LINE       9D     66
     110      64       1       1       0       0       0       001010000D     67
     110       0       8       1       0                    LINE      10D     68
     120      65       1       1       0       0       0       001010000D     69
     120       0       8       1       0                    SREV       1D     70
     508      66       1       1       0       0       0       001010000D     71
     508       0       0       1       1                EDGELOOP       3D     72
     510      67       1       1       0       0       0       001010000D     73
     510       0       8       1       1                    FACE       3D     74
     128      68       1       1       0       0       0       001010000D     75
     128       0       8       7       0                  SPLSRF       3D     76
     508      75       1       1       0       0       0       001010000D     77
     508       0       0       1       1                EDGELOOP       4D     78
     510      76       1       1       0       0       0       001010000D     79
     510       0       8       1       1                    FACE       4D     80
     110      77       1       1       0       0       0       001010000D     81
     110       0       8       2       0                    LINE      11D     82
     110      79       1       1       0       0       0       001010000D     83
     110       0       8       1       0                    LINE      12D     84
     120      80       1       1       0       0       0       001010000D     85
     120       0       8       1       0                    SREV       2D     86
     508      81       1       1       0       0       0       001010000D     87
     508       0       0       1       1                EDGELOOP       5D     88
     510      82       1       1       0       0       0       001010000D     89
     510       0       8       1       1                    FACE       5D     90
     128      83       1       1       0       0       0       001010000D     91
     128       0       8       6       0                  SPLSRF       4D     92
     508      89       1       1       0       0       0       001010000D     93
     508       0       0       1       1                EDGELOOP       6D     94
     510      90       1       1       0       0       0       001010000D     95
     510       0       8       1       1                    FACE       6D     96
     514      91       1       1       0       0       0       001000000D     97
     514       0       8       1       1                   SHELL       1D     98
     186      92       1       1       0       0       0       000000000D     99
     186       0       8       1       0                    MSBR       1D    100
314,1.1D0,1.2D0,1D2;                                                   1P      1
314,1.1D1,1.1D1,1.1D1;                                                 3P      2
314,3.92D1,1.2D0,1.2D0;                                                5P      3
314,4.1D1,0D0,2.2D1;                                                   7P      4
314,8.784D1,9.49D1,1D2;                                                9P      5
314,9.6D1,9.6D1,9.6D1;                                                11P      6
314,9.8D1,6.27D1,0D0;                                                 13P      7
314,1D2,1D2,9.49D1;                                                   15P      8
110,-1.455D2,8.644799824172D2,1.3D2,-1.455D2,8.745911273275D2,        17P      9
1.3D2;                                                                17P     10
110,-1.455D2,8.644799824172D2,-1.3D2,-1.455D2,8.745911273275D2,       19P     11
-1.3D2;                                                               19P     12
124,0D0,0D0,-1D0,-1.455D2,9.891326932001D-1,1.470255598281D-1,        21P     13
0D0,0D0,1.470255598281D-1,-9.891326932001D-1,0D0,0D0;                 21P     14
100,0D0,0D0,0D0,8.842D2,0D0,8.459733544447D2,2.571745002320D2;        23P     15
110,-1.455D2,8.745911273275D2,1.3D2,1.455D2,8.745911273275D2,         25P     16
1.3D2;                                                                25P     17
110,-1.455D2,8.745911273275D2,-1.3D2,1.455D2,8.745911273275D2,        27P     18
-1.3D2;                                                               27P     19
124,0D0,0D0,1D0,-1.455D2,9.888812427559D-1,1.487073896134D-1,         29P     20
0D0,5.413984690249D-14,-1.487073896134D-1,9.888812427559D-1,0D0,      29P     21
0D0;                                                                  29P     22
100,0D0,0D0,0D0,8.742D2,0D0,8.355360787005D2,2.571091231165D2;        31P     23
110,-1.455D2,8.644799824172D2,1.3D2,1.455D2,8.644799824172D2,         33P     24
1.3D2;                                                                33P     25
124,0D0,0D0,-1D0,1.455D2,9.888812427559D-1,1.487073896134D-1,         35P     26
0D0,5.413984690249D-14,1.487073896134D-1,-9.888812427559D-1,0D0,      35P     27
0D0;                                                                  35P     28
100,0D0,0D0,0D0,8.742D2,0D0,8.355360787005D2,2.571091231165D2;        37P     29
110,-1.455D2,8.644799824172D2,-1.3D2,1.455D2,8.644799824172D2,        39P     30
-1.3D2;                                                               39P     31
110,1.455D2,8.644799824172D2,1.3D2,1.455D2,8.745911273275D2,          41P     32
1.3D2;                                                                41P     33
124,0D0,0D0,-1D0,1.455D2,9.891326932001D-1,1.470255598281D-1,         43P     34
0D0,0D0,1.470255598281D-1,-9.891326932001D-1,0D0,0D0;                 43P     35
100,0D0,0D0,0D0,8.842D2,0D0,8.459733544447D2,2.571745002320D2;        45P     36
110,1.455D2,8.644799824172D2,-1.3D2,1.455D2,8.745911273275D2,         47P     37
-1.3D2;                                                               47P     38
502,8,-1.455D2,8.644799824172D2,1.3D2,-1.455D2,8.745911273275D2,      49P     39
1.3D2,-1.455D2,8.644799824172D2,-1.3D2,-1.455D2,                      49P     40
8.745911273275D2,-1.3D2,1.455D2,8.745911273275D2,1.3D2,1.455D2,       49P     41
8.745911273275D2,-1.3D2,1.455D2,8.644799824172D2,-1.3D2,1.455D2,      49P     42
8.644799824172D2,1.3D2;                                               49P     43
504,12,17,49,1,49,2,19,49,3,49,4,25,49,2,49,5,27,49,4,49,6,39,        51P     44
49,3,49,7,33,49,1,49,8,23,49,2,49,4,41,49,8,49,5,47,49,7,49,6,        51P     45
45,49,5,49,6,37,49,8,49,7,31,49,3,49,1;                               51P     46
128,1,1,1,1,0,0,1,0,0,-1.352D2,-1.352D2,1.352D2,1.352D2,              53P     47
8.614586602409D2,8.614586602409D2,8.875410929163D2,                   53P     48
8.875410929163D2,1D0,1D0,1D0,1D0,-1.455D2,8.614586602409D2,           53P     49
-1.352D2,-1.455D2,8.614586602409D2,1.352D2,-1.455D2,                  53P     50
8.875410929163D2,-1.352D2,-1.455D2,8.875410929163D2,1.352D2,          53P     51
-1.352D2,1.352D2,8.614586602409D2,8.875410929163D2;                   53P     52
508,4,0,51,1,0,0,0,51,12,0,0,0,51,2,1,0,0,51,7,0,0;                   55P     53
510,53,1,0,55;                                                        57P     54
128,1,1,1,1,0,0,1,0,0,2.910439529428D2,2.910439529428D2,              59P     55
3.071977422057D2,3.071977422057D2,-4.625295D2,-4.625295D2,            59P     56
-1.598895D2,-1.598895D2,1D0,1D0,1D0,1D0,-1.5132D2,                    59P     57
8.614586602409D2,1.3D2,-1.5132D2,8.776124495038D2,1.3D2,              59P     58
1.5132D2,8.614586602409D2,1.3D2,1.5132D2,8.776124495038D2,1.3D2,      59P     59
2.910439529428D2,3.071977422057D2,-4.625295D2,-1.598895D2;            59P     60
508,4,0,51,1,1,0,0,51,3,1,0,0,51,8,0,0,0,51,6,0,0;                    61P     61
510,59,1,0,61;                                                        63P     62
110,-1.455D2,0D0,0D0,-1.465D2,0D0,0D0;                                65P     63
110,1.5132D2,0D0,8.842D2,-1.5132D2,0D0,8.842D2;                       67P     64
120,65,67,1.417333431323D0,1.724259222267D0;                          69P     65
508,4,0,51,3,0,0,0,51,7,1,0,0,51,4,1,0,0,51,10,0,0;                   71P     66
510,69,1,0,71;                                                        73P     67
128,1,1,1,1,0,0,1,0,0,3.303245504962D2,3.303245504962D2,              75P     68
3.464783397591D2,3.464783397591D2,-4.625295D2,-4.625295D2,            75P     69
-1.598895D2,-1.598895D2,1D0,1D0,1D0,1D0,-1.5132D2,                    75P     70
8.776124495038D2,-1.3D2,-1.5132D2,8.614586602409D2,-1.3D2,            75P     71
1.5132D2,8.776124495038D2,-1.3D2,1.5132D2,8.614586602409D2,           75P     72
-1.3D2,3.303245504962D2,3.464783397591D2,-4.625295D2,                 75P     73
-1.598895D2;                                                          75P     74
508,4,0,51,2,0,0,0,51,5,1,0,0,51,9,1,0,0,51,4,0,0;                    77P     75
510,75,1,0,77;                                                        79P     76
110,2.663268480222D3,5.413984690249D-14,0D0,2.662268480222D3,         81P     77
5.413984690249D-14,0D0;                                               81P     78
110,1.5132D2,8.742D2,0D0,-1.5132D2,8.742D2,0D0;                       83P     79
120,81,83,-1.552314396903D-1,1.552314396903D-1;                       85P     80
508,4,0,51,12,1,0,0,51,6,1,0,0,51,11,1,0,0,51,5,0,0;                  87P     81
510,85,1,0,87;                                                        89P     82
128,1,1,1,1,0,0,1,0,0,-1.352D2,-1.352D2,1.352D2,1.352D2,              91P     83
8.614586602409D2,8.614586602409D2,8.875410929163D2,                   91P     84
8.875410929163D2,1D0,1D0,1D0,1D0,1.455D2,8.614586602409D2,            91P     85
-1.352D2,1.455D2,8.614586602409D2,1.352D2,1.455D2,                    91P     86
8.875410929163D2,-1.352D2,1.455D2,8.875410929163D2,1.352D2,           91P     87
-1.352D2,1.352D2,8.614586602409D2,8.875410929163D2;                   91P     88
508,4,0,51,8,1,0,0,51,10,1,0,0,51,9,0,0,0,51,11,0,0;                  93P     89
510,91,1,0,93;                                                        95P     90
514,6,57,1,63,0,73,1,79,0,89,0,95,0;                                  97P     91
186,97,1,0;                                                           99P     92
S      1G      4D    100P     92                                        T      1
