 PTC IGES file: mice3-02.igs                                            S      1
1H,,1H;,8HMICE3-02,12Hmice3-02.igs,                                     G      1
49HPro/ENGINEER by Parametric Technology Corporation,7H2004110,32,38,7, G      2
38,15,8HMICE3-02,1.,2,2HMM,32768,0.5,13H080428.080944,0.251217,2512.27, G      3
10Hliuxiaokun,7HUnknown,10,0,13H080428.080944;                          G      4
     314       1       1       1       0       0       0       001000200D      1
     314       0       4       1       0                   COLOR       1D      2
     314       2       1       1       0       0       0       001000200D      3
     314       0       1       1       0                   COLOR       2D      4
     314       3       1       1       0       0       0       001000200D      5
     314       0       1       1       0                   COLOR       3D      6
     314       4       1       1       0       0       0       001000200D      7
     314       0       1       1       0                   COLOR       4D      8
     314       5       1       1       0       0       0       001000200D      9
     314       0       8       1       0                   COLOR       5D     10
     314       6       1       1       0       0       0       001000200D     11
     314       0       8       1       0                   COLOR       6D     12
     314       7       1       1       0       0       0       001000200D     13
     314       0       5       1       0                   COLOR       7D     14
     314       8       1       1       0       0       0       001000200D     15
     314       0       8       1       0                   COLOR       8D     16
     124       9       1       1       0       0       0       001000000D     17
     124       0       0       1       0                   XFORM       1D     18
     100      10       1       1       0       0      17       001010000D     19
     100       0       8       1       0                     ARC       1D     20
     124      11       1       1       0       0       0       001000000D     21
     124       0       0       1       0                   XFORM       2D     22
     100      12       1       1       0       0      21       001010000D     23
     100       0       8       1       0                     ARC       2D     24
     124      13       1       1       0       0       0       001000000D     25
     124       0       0       2       0                   XFORM       3D     26
     100      15       1       1       0       0      25       001010000D     27
     100       0       8       1       0                     ARC       3D     28
     124      16       1       1       0       0       0       001000000D     29
     124       0       0       2       0                   XFORM       4D     30
     100      18       1       1       0       0      29       001010000D     31
     100       0       8       1       0                     ARC       4D     32
     110      19       1       1       0       0       0       001010000D     33
     110       0       8       2       0                    LINE       1D     34
     110      21       1       1       0       0       0       001010000D     35
     110       0       8       2       0                    LINE       2D     36
     124      23       1       1       0       0       0       001000000D     37
     124       0       0       1       0                   XFORM       5D     38
     100      24       1       1       0       0      37       001010000D     39
     100       0       8       1       0                     ARC       5D     40
     124      25       1       1       0       0       0       001000000D     41
     124       0       0       1       0                   XFORM       6D     42
     100      26       1       1       0       0      41       001010000D     43
     100       0       8       1       0                     ARC       6D     44
     124      27       1       1       0       0       0       001000000D     45
     124       0       0       2       0                   XFORM       7D     46
     100      29       1       1       0       0      45       001010000D     47
     100       0       8       1       0                     ARC       7D     48
     124      30       1       1       0       0       0       001000000D     49
     124       0       0       2       0                   XFORM       8D     50
     100      32       1       1       0       0      49       001010000D     51
     100       0       8       1       0                     ARC       8D     52
     110      33       1       1       0       0       0       001010000D     53
     110       0       8       1       0                    LINE       3D     54
     110      34       1       1       0       0       0       001010000D     55
     110       0       8       2       0                    LINE       4D     56
     502      36       1       1       0       0       0       001010000D     57
     502       0       8       5       1                  VERTEX       1D     58
     504      41       1       1       0       0       0       000010001D     59
     504       0       8       3       1                    EDGE       1D     60
     128      44       1       1       0       0       0       001010000D     61
     128       0       8       5       0                  SPLSRF       1D     62
     508      49       1       1       0       0       0       001010000D     63
     508       0       0       1       1                EDGELOOP       1D     64
     508      50       1       1       0       0       0       001010000D     65
     508       0       0       1       1                EDGELOOP       2D     66
     510      51       1       1       0       0       0       000010000D     67
     510       0       8       1       1                    FACE       1D     68
     110      52       1       1       0       0       0       001010000D     69
     110       0       8       1       0                    LINE       5D     70
     110      53       1       1       0       0       0       001010000D     71
     110       0       8       1       0                    LINE       6D     72
     120      54       1       1       0       0       0       001010000D     73
     120       0       8       1       0                    SREV       1D     74
     508      55       1       1       0       0       0       001010000D     75
     508       0       0       1       1                EDGELOOP       3D     76
     510      56       1       1       0       0       0       000010000D     77
     510       0       8       1       1                    FACE       2D     78
     110      57       1       1       0       0       0       001010000D     79
     110       0       8       1       0                    LINE       7D     80
     110      58       1       1       0       0       0       001010000D     81
     110       0       8       1       0                    LINE       8D     82
     120      59       1       1       0       0       0       001010000D     83
     120       0       8       1       0                    SREV       2D     84
     508      60       1       1       0       0       0       001010000D     85
     508       0       0       1       1                EDGELOOP       4D     86
     510      61       1       1       0       0       0       000010000D     87
     510       0       8       1       1                    FACE       3D     88
     128      62       1       1       0       0       0       001010000D     89
     128       0       8       5       0                  SPLSRF       2D     90
     508      67       1       1       0       0       0       001010000D     91
     508       0       0       1       1                EDGELOOP       5D     92
     508      68       1       1       0       0       0       001010000D     93
     508       0       0       1       1                EDGELOOP       6D     94
     510      69       1       1       0       0       0       000010000D     95
     510       0       8       1       1                    FACE       4D     96
     110      70       1       1       0       0       0       001010000D     97
     110       0       8       2       0                    LINE       9D     98
     110      72       1       1       0       0       0       001010000D     99
     110       0       8       1       0                    LINE      10D    100
     120      73       1       1       0       0       0       001010000D    101
     120       0       8       1       0                    SREV       3D    102
     508      74       1       1       0       0       0       001010000D    103
     508       0       0       1       1                EDGELOOP       7D    104
     510      75       1       1       0       0       0       000010000D    105
     510       0       8       1       1                    FACE       5D    106
     110      76       1       1       0       0       0       001010000D    107
     110       0       8       2       0                    LINE      11D    108
     110      78       1       1       0       0       0       001010000D    109
     110       0       8       1       0                    LINE      12D    110
     120      79       1       1       0       0       0       001010000D    111
     120       0       8       1       0                    SREV       4D    112
     508      80       1       1       0       0       0       001010000D    113
     508       0       0       1       1                EDGELOOP       8D    114
     510      81       1       1       0       0       0       000010000D    115
     510       0       8       1       1                    FACE       6D    116
     514      82       1       1       0       0       0       000000000D    117
     514       0       8       1       1                   SHELL       1D    118
     186      83       1       1       0       0       0       000000000D    119
     186       0       8       1       0                    MSBR       1D    120
314,1.1D0,1.2D0,1D2;                                                   1P      1
314,1.1D1,1.1D1,1.1D1;                                                 3P      2
314,3.92D1,1.2D0,1.2D0;                                                5P      3
314,4.1D1,0D0,2.2D1;                                                   7P      4
314,8.784D1,9.49D1,1D2;                                                9P      5
314,9.6D1,9.6D1,9.6D1;                                                11P      6
314,9.8D1,6.27D1,0D0;                                                 13P      7
314,1D2,1D2,9.49D1;                                                   15P      8
124,0D0,0D0,-1D0,-1.46D2,0D0,1D0,0D0,0D0,1D0,0D0,0D0,0D0;             17P      9
100,0D0,0D0,0D0,8.822D2,0D0,-8.822D2,1.080347725342D-13;              19P     10
124,0D0,0D0,-1D0,-1.46D2,0D0,-1D0,0D0,0D0,-1D0,0D0,0D0,0D0;           21P     11
100,0D0,0D0,0D0,8.822D2,0D0,-8.822D2,1.080347725342D-13;              23P     12
124,0D0,0D0,-1D0,-1.46D2,1D0,0D0,0D0,5.401738626711D-14,0D0,          25P     13
-1D0,0D0,0D0;                                                         25P     14
100,0D0,0D0,0D0,8.672D2,0D0,-8.672D2,1.061978630035D-13;              27P     15
124,0D0,0D0,-1D0,-1.46D2,-1D0,0D0,0D0,5.401738626711D-14,0D0,         29P     16
1D0,0D0,0D0;                                                          29P     17
100,0D0,0D0,0D0,8.672D2,0D0,-8.672D2,1.061978630035D-13;              31P     18
110,-1.46D2,-1.080347725342D-13,8.822D2,1.46D2,                       33P     19
-1.080347725342D-13,8.822D2;                                          33P     20
110,-1.46D2,1.080347725342D-13,-8.822D2,1.46D2,                       35P     21
1.080347725342D-13,-8.822D2;                                          35P     22
124,0D0,0D0,-1D0,1.46D2,0D0,1D0,0D0,0D0,1D0,0D0,0D0,0D0;              37P     23
100,0D0,0D0,0D0,8.822D2,0D0,-8.822D2,1.080347725342D-13;              39P     24
124,0D0,0D0,-1D0,1.46D2,0D0,-1D0,0D0,0D0,-1D0,0D0,0D0,0D0;            41P     25
100,0D0,0D0,0D0,8.822D2,0D0,-8.822D2,1.080347725342D-13;              43P     26
124,0D0,0D0,-1D0,1.46D2,1D0,0D0,0D0,5.401738626711D-14,0D0,-1D0,      45P     27
0D0,0D0;                                                              45P     28
100,0D0,0D0,0D0,8.672D2,0D0,-8.672D2,1.061978630035D-13;              47P     29
124,0D0,0D0,-1D0,1.46D2,-1D0,0D0,0D0,5.401738626711D-14,0D0,1D0,      49P     30
0D0,0D0;                                                              49P     31
100,0D0,0D0,0D0,8.672D2,0D0,-8.672D2,1.061978630035D-13;              51P     32
110,1.46D2,8.672D2,0D0,-1.46D2,8.672D2,0D0;                           53P     33
110,1.46D2,-8.672D2,-1.283713875940D-13,-1.46D2,-8.672D2,             55P     34
-1.283713875940D-13;                                                  55P     35
502,8,-1.46D2,-1.080347725342D-13,8.822D2,-1.46D2,                    57P     36
2.160695450684D-13,-8.822D2,1.46D2,-1.080347725342D-13,8.822D2,       57P     37
1.46D2,2.160695450684D-13,-8.822D2,1.46D2,8.672D2,0D0,1.46D2,         57P     38
-8.672D2,-1.061978630035D-13,-1.46D2,8.672D2,0D0,-1.46D2,             57P     39
-8.672D2,-1.283713875940D-13;                                         57P     40
504,12,19,57,1,57,2,23,57,2,57,1,39,57,3,57,4,43,57,4,57,3,33,        59P     41
57,1,57,3,35,57,2,57,4,47,57,5,57,6,51,57,6,57,5,53,57,5,57,7,        59P     42
55,57,6,57,8,27,57,7,57,8,31,57,8,57,7;                               59P     43
128,1,1,1,1,0,0,1,0,0,-9.17488D2,-9.17488D2,9.17488D2,9.17488D2,      61P     44
-9.17488D2,-9.17488D2,9.17488D2,9.17488D2,1D0,1D0,1D0,1D0,            61P     45
-1.46D2,-9.17488D2,-9.17488D2,-1.46D2,-9.17488D2,9.17488D2,           61P     46
-1.46D2,9.17488D2,-9.17488D2,-1.46D2,9.17488D2,9.17488D2,             61P     47
-9.17488D2,9.17488D2,-9.17488D2,9.17488D2;                            61P     48
508,2,0,59,1,0,0,0,59,2,0,0;                                          63P     49
508,2,0,59,11,1,0,0,59,12,1,0;                                        65P     50
510,61,2,0,63,65;                                                     67P     51
110,-1.46D2,0D0,0D0,-1.47D2,0D0,0D0;                                  69P     52
110,1.5184D2,0D0,8.822D2,-1.5184D2,0D0,8.822D2;                       71P     53
120,69,71,-6.283185307180D-2,3.204424506662D0;                        73P     54
508,4,0,59,1,1,0,0,59,6,1,0,0,59,3,0,0,0,59,5,0,0;                    75P     55
510,73,1,0,75;                                                        77P     56
110,-1.46D2,0D0,0D0,-1.47D2,0D0,0D0;                                  79P     57
110,1.5184D2,0D0,8.822D2,-1.5184D2,0D0,8.822D2;                       81P     58
120,79,81,3.078760800518D0,6.346017160251D0;                          83P     59
508,4,0,59,2,1,0,0,59,5,1,0,0,59,4,0,0,0,59,6,0,0;                    85P     60
510,83,1,0,85;                                                        87P     61
128,1,1,1,1,0,0,1,0,0,-9.17488D2,-9.17488D2,9.17488D2,9.17488D2,      89P     62
-9.17488D2,-9.17488D2,9.17488D2,9.17488D2,1D0,1D0,1D0,1D0,            89P     63
1.46D2,-9.17488D2,-9.17488D2,1.46D2,-9.17488D2,9.17488D2,1.46D2,      89P     64
9.17488D2,-9.17488D2,1.46D2,9.17488D2,9.17488D2,-9.17488D2,           89P     65
9.17488D2,-9.17488D2,9.17488D2;                                       89P     66
508,2,0,59,3,1,0,0,59,4,1,0;                                          91P     67
508,2,0,59,7,0,0,0,59,8,0,0;                                          93P     68
510,89,2,0,91,93;                                                     95P     69
110,2.658265654743D3,5.401738626711D-14,0D0,2.657265654743D3,         97P     70
5.401738626711D-14,0D0;                                               97P     71
110,1.5184D2,8.672D2,0D0,-1.5184D2,8.672D2,0D0;                       99P     72
120,97,99,-6.283185307180D-2,3.204424506662D0;                       101P     73
508,4,0,59,7,1,0,0,59,10,1,0,0,59,11,0,0,0,59,9,0,0;                 103P     74
510,101,1,0,103;                                                     105P     75
110,2.658265654743D3,5.401738626711D-14,0D0,2.657265654743D3,        107P     76
5.401738626711D-14,0D0;                                              107P     77
110,1.5184D2,8.672D2,0D0,-1.5184D2,8.672D2,0D0;                      109P     78
120,107,109,-3.204424506662D0,6.283185307180D-2;                     111P     79
508,4,0,59,8,1,0,0,59,9,1,0,0,59,12,0,0,0,59,10,0,0;                 113P     80
510,111,1,0,113;                                                     115P     81
514,6,67,1,77,1,87,1,95,0,105,0,115,0;                               117P     82
186,117,1,0;                                                         119P     83
S      1G      4D    120P     83                                        T      1
