 PTC IGES file: mice3-01-c.igs                                          S      1
1H,,1H;,10HMICE3-01-C,14Hmice3-01-c.igs,                                G      1
49HPro/ENGINEER by Parametric Technology Corporation,7H2004110,32,38,7, G      2
38,15,10HMICE3-01-C,1.,2,2HMM,32768,0.5,13H080428.080944,0.251686,      G      3
2516.97,10Hliuxiaokun,7HUnknown,10,0,13H080428.080944;                  G      4
     314       1       1       1       0       0       0       001000200D      1
     314       0       4       1       0                   COLOR       1D      2
     314       2       1       1       0       0       0       001000200D      3
     314       0       1       1       0                   COLOR       2D      4
     314       3       1       1       0       0       0       001000200D      5
     314       0       1       1       0                   COLOR       3D      6
     314       4       1       1       0       0       0       001000200D      7
     314       0       1       1       0                   COLOR       4D      8
     314       5       1       1       0       0       0       001000200D      9
     314       0       8       1       0                   COLOR       5D     10
     314       6       1       1       0       0       0       001000200D     11
     314       0       8       1       0                   COLOR       6D     12
     314       7       1       1       0       0       0       001000200D     13
     314       0       5       1       0                   COLOR       7D     14
     314       8       1       1       0       0       0       001000200D     15
     314       0       8       1       0                   COLOR       8D     16
     124       9       1       1       0       0       0       001000000D     17
     124       0       0       1       0                   XFORM       1D     18
     100      10       1       1       0       0      17       001010000D     19
     100       0       8       1       0                     ARC       1D     20
     124      11       1       1       0       0       0       001000000D     21
     124       0       0       1       0                   XFORM       2D     22
     100      12       1       1       0       0      21       001010000D     23
     100       0       8       1       0                     ARC       2D     24
     124      13       1       1       0       0       0       001000000D     25
     124       0       0       1       0                   XFORM       3D     26
     100      14       1       1       0       0      25       001010000D     27
     100       0       8       1       0                     ARC       3D     28
     124      15       1       1       0       0       0       001000000D     29
     124       0       0       1       0                   XFORM       4D     30
     100      16       1       1       0       0      29       001010000D     31
     100       0       8       1       0                     ARC       4D     32
     124      17       1       1       0       0       0       001000000D     33
     124       0       0       1       0                   XFORM       5D     34
     100      18       1       1       0       0      33       001010000D     35
     100       0       8       1       0                     ARC       5D     36
     110      19       1       1       0       0       0       001010000D     37
     110       0       8       2       0                    LINE       1D     38
     124      21       1       1       0       0       0       001000000D     39
     124       0       0       1       0                   XFORM       6D     40
     100      22       1       1       0       0      39       001010000D     41
     100       0       8       1       0                     ARC       6D     42
     110      23       1       1       0       0       0       001010000D     43
     110       0       8       2       0                    LINE       2D     44
     124      25       1       1       0       0       0       001000000D     45
     124       0       0       1       0                   XFORM       7D     46
     100      26       1       1       0       0      45       001010000D     47
     100       0       8       1       0                     ARC       7D     48
     110      27       1       1       0       0       0       001010000D     49
     110       0       8       2       0                    LINE       3D     50
     124      29       1       1       0       0       0       001000000D     51
     124       0       0       1       0                   XFORM       8D     52
     100      30       1       1       0       0      51       001010000D     53
     100       0       8       1       0                     ARC       8D     54
     110      31       1       1       0       0       0       001010000D     55
     110       0       8       2       0                    LINE       4D     56
     502      33       1       1       0       0       0       001010000D     57
     502       0       8       5       1                  VERTEX       1D     58
     504      38       1       1       0       0       0       000010001D     59
     504       0       8       3       1                    EDGE       1D     60
     128      41       1       1       0       0       0       001010000D     61
     128       0       8       5       0                  SPLSRF       1D     62
     508      46       1       1       0       0       0       001010000D     63
     508       0       0       1       1                EDGELOOP       1D     64
     508      47       1       1       0       0       0       001010000D     65
     508       0       0       1       1                EDGELOOP       2D     66
     510      48       1       1       0       0       0       000010000D     67
     510       0       8       1       1                    FACE       1D     68
     110      49       1       1       0       0       0       001010000D     69
     110       0       8       1       0                    LINE       5D     70
     110      50       1       1       0       0       0       001010000D     71
     110       0       8       1       0                    LINE       6D     72
     120      51       1       1       0       0       0       001010000D     73
     120       0       8       1       0                    SREV       1D     74
     508      52       1       1       0       0       0       001010000D     75
     508       0       0       1       1                EDGELOOP       3D     76
     510      53       1       1       0       0       0       000010000D     77
     510       0       8       1       1                    FACE       2D     78
     128      54       1       1       0       0       0       001010000D     79
     128       0       8       6       0                  SPLSRF       2D     80
     508      60       1       1       0       0       0       001010000D     81
     508       0       0       1       1                EDGELOOP       4D     82
     508      61       1       1       0       0       0       001010000D     83
     508       0       0       1       1                EDGELOOP       5D     84
     510      62       1       1       0       0       0       000010000D     85
     510       0       8       1       1                    FACE       3D     86
     110      63       1       1       0       0       0       001010000D     87
     110       0       8       1       0                    LINE       7D     88
     110      64       1       1       0       0       0       001010000D     89
     110       0       8       1       0                    LINE       8D     90
     120      65       1       1       0       0       0       001010000D     91
     120       0       8       1       0                    SREV       2D     92
     508      66       1       1       0       0       0       001010000D     93
     508       0       0       1       1                EDGELOOP       6D     94
     510      67       1       1       0       0       0       000010000D     95
     510       0       8       1       1                    FACE       4D     96
     110      68       1       1       0       0       0       001010000D     97
     110       0       8       1       0                    LINE       9D     98
     110      69       1       1       0       0       0       001010000D     99
     110       0       8       1       0                    LINE      10D    100
     120      70       1       1       0       0       0       001010000D    101
     120       0       8       1       0                    SREV       3D    102
     508      71       1       1       0       0       0       001010000D    103
     508       0       0       1       1                EDGELOOP       7D    104
     510      72       1       1       0       0       0       000010000D    105
     510       0       8       1       1                    FACE       5D    106
     110      73       1       1       0       0       0       001010000D    107
     110       0       8       1       0                    LINE      11D    108
     110      74       1       1       0       0       0       001010000D    109
     110       0       8       1       0                    LINE      12D    110
     120      75       1       1       0       0       0       001010000D    111
     120       0       8       1       0                    SREV       4D    112
     508      76       1       1       0       0       0       001010000D    113
     508       0       0       1       1                EDGELOOP       8D    114
     510      77       1       1       0       0       0       000010000D    115
     510       0       8       1       1                    FACE       6D    116
     514      78       1       1       0       0       0       000000000D    117
     514       0       8       1       1                   SHELL       1D    118
     186      79       1       1       0       0       0       000000000D    119
     186       0       8       1       0                    MSBR       1D    120
314,1.1D0,1.2D0,1D2;                                                   1P      1
314,1.1D1,1.1D1,1.1D1;                                                 3P      2
314,3.92D1,1.2D0,1.2D0;                                                5P      3
314,4.1D1,0D0,2.2D1;                                                   7P      4
314,8.784D1,9.49D1,1D2;                                                9P      5
314,9.6D1,9.6D1,9.6D1;                                                11P      6
314,9.8D1,6.27D1,0D0;                                                 13P      7
314,1D2,1D2,9.49D1;                                                   15P      8
124,0D0,0D0,-1D0,1.65D2,0D0,1D0,0D0,0D0,1D0,0D0,0D0,0D0;              17P      9
100,0D0,0D0,0D0,8.822D2,0D0,-8.822D2,1.080347725342D-13;              19P     10
124,0D0,0D0,-1D0,1.65D2,0D0,-1D0,0D0,0D0,-1D0,0D0,0D0,0D0;            21P     11
100,0D0,0D0,0D0,8.822D2,0D0,-8.822D2,1.080347725342D-13;              23P     12
124,0D0,0D0,1D0,1.65D2,-1D0,0D0,0D0,0D0,0D0,-1D0,0D0,0D0;             25P     13
100,0D0,0D0,0D0,7.484D2,0D0,-7.484D2,9.164953952007D-14;              27P     14
124,0D0,0D0,1D0,1.65D2,1D0,0D0,0D0,0D0,0D0,1D0,0D0,0D0;               29P     15
100,0D0,0D0,0D0,7.484D2,0D0,-7.484D2,9.164953952007D-14;              31P     16
124,0D0,0D0,-1D0,1.46D2,0D0,1D0,0D0,0D0,1D0,0D0,0D0,0D0;              33P     17
100,0D0,0D0,0D0,8.822D2,0D0,-8.822D2,1.080347725342D-13;              35P     18
110,1.46D2,-1.440463633789D-13,8.822D2,1.65D2,                        37P     19
-1.080347725342D-13,8.822D2;                                          37P     20
124,0D0,0D0,1D0,1.46D2,-1D0,0D0,0D0,0D0,0D0,-1D0,0D0,0D0;             39P     21
100,0D0,0D0,0D0,7.484D2,0D0,-7.484D2,9.164953952007D-14;              41P     22
110,1.65D2,-7.484D2,9.164953952007D-14,1.46D2,-7.484D2,               43P     23
1.304246173722D-13;                                                   43P     24
124,0D0,0D0,1D0,1.46D2,1D0,0D0,0D0,0D0,0D0,1D0,0D0,0D0;               45P     25
100,0D0,0D0,0D0,7.484D2,0D0,-7.484D2,9.164953952007D-14;              47P     26
110,1.65D2,7.484D2,-9.164953952007D-14,1.46D2,7.484D2,                49P     27
-6.109969301338D-14;                                                  49P     28
124,0D0,0D0,-1D0,1.46D2,0D0,-1D0,0D0,0D0,-1D0,0D0,0D0,0D0;            51P     29
100,0D0,0D0,0D0,8.822D2,0D0,-8.822D2,1.080347725342D-13;              53P     30
110,1.46D2,1.080347725342D-13,-8.822D2,1.65D2,                        55P     31
1.080347725342D-13,-8.822D2;                                          55P     32
502,8,1.65D2,-1.080347725342D-13,8.822D2,1.65D2,                      57P     33
2.160695450684D-13,-8.822D2,1.65D2,-7.484D2,9.164953952007D-14,       57P     34
1.65D2,7.484D2,-1.832990790401D-13,1.46D2,-1.080347725342D-13,        57P     35
8.822D2,1.46D2,2.160695450684D-13,-8.822D2,1.46D2,-7.484D2,           57P     36
1.136868377216D-13,1.46D2,7.484D2,-2.053363772417D-13;                57P     37
504,12,19,57,1,57,2,23,57,2,57,1,27,57,3,57,4,31,57,4,57,3,35,        59P     38
57,5,57,6,53,57,6,57,5,37,57,5,57,1,55,57,6,57,2,41,57,7,57,8,        59P     39
47,57,8,57,7,43,57,3,57,7,49,57,4,57,8;                               59P     40
128,1,1,1,1,0,0,1,0,0,-9.17488D2,-9.17488D2,9.17488D2,9.17488D2,      61P     41
-9.17488D2,-9.17488D2,9.17488D2,9.17488D2,1D0,1D0,1D0,1D0,            61P     42
1.65D2,-9.17488D2,-9.17488D2,1.65D2,-9.17488D2,9.17488D2,1.65D2,      61P     43
9.17488D2,-9.17488D2,1.65D2,9.17488D2,9.17488D2,-9.17488D2,           61P     44
9.17488D2,-9.17488D2,9.17488D2;                                       61P     45
508,2,0,59,1,1,0,0,59,2,1,0;                                          63P     46
508,2,0,59,3,1,0,0,59,4,1,0;                                          65P     47
510,61,2,0,63,65;                                                     67P     48
110,-1.65D2,0D0,0D0,-1.66D2,0D0,0D0;                                  69P     49
110,1.680203584550D2,0D0,8.822D2,1.429796415450D2,0D0,8.822D2;        71P     50
120,69,71,-6.283185307180D-2,3.204424506662D0;                        73P     51
508,4,0,59,5,1,0,0,59,8,1,0,0,59,1,0,0,0,59,7,0,0;                    75P     52
510,73,1,0,75;                                                        77P     53
128,1,1,1,1,0,0,1,0,0,-9.181199643299D2,-9.181199643299D2,            79P     54
9.181199643299D2,9.181199643299D2,-9.17488D2,-9.17488D2,              79P     55
9.17488D2,9.17488D2,1D0,1D0,1D0,1D0,1.46D2,-9.181199643299D2,         79P     56
9.17488D2,1.46D2,9.181199643299D2,9.17488D2,1.46D2,                   79P     57
-9.181199643299D2,-9.17488D2,1.46D2,9.181199643299D2,-9.17488D2,      79P     58
-9.181199643299D2,9.181199643299D2,-9.17488D2,9.17488D2;              79P     59
508,2,0,59,5,0,0,0,59,6,0,0;                                          81P     60
508,2,0,59,9,0,0,0,59,10,0,0;                                         83P     61
510,79,2,0,81,83;                                                     85P     62
110,1.65D2,0D0,0D0,1.66D2,0D0,0D0;                                    87P     63
110,1.429796415450D2,-7.484D2,0D0,1.680203584550D2,-7.484D2,0D0;      89P     64
120,87,89,-6.283185307180D-2,3.204424506662D0;                        91P     65
508,4,0,59,9,1,0,0,59,12,0,0,0,59,3,0,0,0,59,11,1,0;                  93P     66
510,91,1,0,93;                                                        95P     67
110,1.65D2,0D0,0D0,1.66D2,0D0,0D0;                                    97P     68
110,1.429796415450D2,-7.484D2,0D0,1.680203584550D2,-7.484D2,0D0;      99P     69
120,97,99,3.078760800518D0,6.346017160251D0;                         101P     70
508,4,0,59,10,1,0,0,59,11,0,0,0,59,4,0,0,0,59,12,1,0;                103P     71
510,101,1,0,103;                                                     105P     72
110,-1.65D2,0D0,0D0,-1.66D2,0D0,0D0;                                 107P     73
110,1.680203584550D2,0D0,8.822D2,1.429796415450D2,0D0,8.822D2;       109P     74
120,107,109,3.078760800518D0,6.346017160251D0;                       111P     75
508,4,0,59,6,1,0,0,59,7,1,0,0,59,2,0,0,0,59,8,0,0;                   113P     76
510,111,1,0,113;                                                     115P     77
514,6,67,0,77,1,85,1,95,0,105,0,115,1;                               117P     78
186,117,1,0;                                                         119P     79
S      1G      4D    120P     79                                        T      1
