 PTC IGES file: mice3-01-b.igs                                          S      1
1H,,1H;,10HMICE3-01-B,14Hmice3-01-b.igs,                                G      1
49HPro/ENGINEER by Parametric Technology Corporation,7H2004110,32,38,7, G      2
38,15,10HMICE3-01-B,1.,2,2HMM,32768,0.5,13H080428.080944,0.251686,      G      3
2516.97,10Hliuxiaokun,7HUnknown,10,0,13H080428.080944;                  G      4
     314       1       1       1       0       0       0       001000200D      1
     314       0       4       1       0                   COLOR       1D      2
     314       2       1       1       0       0       0       001000200D      3
     314       0       1       1       0                   COLOR       2D      4
     314       3       1       1       0       0       0       001000200D      5
     314       0       1       1       0                   COLOR       3D      6
     314       4       1       1       0       0       0       001000200D      7
     314       0       1       1       0                   COLOR       4D      8
     314       5       1       1       0       0       0       001000200D      9
     314       0       8       1       0                   COLOR       5D     10
     314       6       1       1       0       0       0       001000200D     11
     314       0       8       1       0                   COLOR       6D     12
     314       7       1       1       0       0       0       001000200D     13
     314       0       5       1       0                   COLOR       7D     14
     314       8       1       1       0       0       0       001000200D     15
     314       0       8       1       0                   COLOR       8D     16
     110       9       1       1       0       0       0       001010000D     17
     110       0       8       2       0                    LINE       1D     18
     124      11       1       1       0       0       0       001000000D     19
     124       0       0       1       0                   XFORM       1D     20
     100      12       1       1       0       0      19       001010000D     21
     100       0       8       1       0                     ARC       1D     22
     124      13       1       1       0       0       0       001000000D     23
     124       0       0       1       0                   XFORM       2D     24
     100      14       1       1       0       0      23       001010000D     25
     100       0       8       1       0                     ARC       2D     26
     124      15       1       1       0       0       0       001000000D     27
     124       0       0       2       0                   XFORM       3D     28
     100      17       1       1       0       0      27       001010000D     29
     100       0       8       1       0                     ARC       3D     30
     124      18       1       1       0       0       0       001000000D     31
     124       0       0       2       0                   XFORM       4D     32
     100      20       1       1       0       0      31       001010000D     33
     100       0       8       1       0                     ARC       4D     34
     110      21       1       1       0       0       0       001010000D     35
     110       0       8       2       0                    LINE       2D     36
     124      23       1       1       0       0       0       001000000D     37
     124       0       0       1       0                   XFORM       5D     38
     100      24       1       1       0       0      37       001010000D     39
     100       0       8       1       0                     ARC       5D     40
     124      25       1       1       0       0       0       001000000D     41
     124       0       0       1       0                   XFORM       6D     42
     100      26       1       1       0       0      41       001010000D     43
     100       0       8       1       0                     ARC       6D     44
     124      27       1       1       0       0       0       001000000D     45
     124       0       0       2       0                   XFORM       7D     46
     100      29       1       1       0       0      45       001010000D     47
     100       0       8       1       0                     ARC       7D     48
     124      30       1       1       0       0       0       001000000D     49
     124       0       0       2       0                   XFORM       8D     50
     100      32       1       1       0       0      49       001010000D     51
     100       0       8       1       0                     ARC       8D     52
     124      33       1       1       0       0       0       001000000D     53
     124       0       0       2       0                   XFORM       9D     54
     100      35       1       1       0       0      53       001010000D     55
     100       0       8       1       0                     ARC       9D     56
     110      36       1       1       0       0       0       001010000D     57
     110       0       8       1       0                    LINE       3D     58
     110      37       1       1       0       0       0       001010000D     59
     110       0       8       1       0                    LINE       4D     60
     124      38       1       1       0       0       0       001000000D     61
     124       0       0       2       0                   XFORM      10D     62
     100      40       1       1       0       0      61       001010000D     63
     100       0       8       1       0                     ARC      10D     64
     124      41       1       1       0       0       0       001000000D     65
     124       0       0       2       0                   XFORM      11D     66
     100      43       1       1       0       0      65       001010000D     67
     100       0       8       1       0                     ARC      11D     68
     110      44       1       1       0       0       0       001010000D     69
     110       0       8       2       0                    LINE       5D     70
     110      46       1       1       0       0       0       001010000D     71
     110       0       8       2       0                    LINE       6D     72
     110      48       1       1       0       0       0       001010000D     73
     110       0       8       2       0                    LINE       7D     74
     124      50       1       1       0       0       0       001000000D     75
     124       0       0       2       0                   XFORM      12D     76
     100      52       1       1       0       0      75       001010000D     77
     100       0       8       1       0                     ARC      12D     78
     110      53       1       1       0       0       0       001010000D     79
     110       0       8       1       0                    LINE       8D     80
     502      54       1       1       0       0       0       001010000D     81
     502       0       8      10       1                  VERTEX       1D     82
     504      64       1       1       0       0       0       000010001D     83
     504       0       8       5       1                    EDGE       1D     84
     110      69       1       1       0       0       0       001010000D     85
     110       0       8       1       0                    LINE       9D     86
     110      70       1       1       0       0       0       001010000D     87
     110       0       8       1       0                    LINE      10D     88
     120      71       1       1       0       0       0       001010000D     89
     120       0       8       1       0                    SREV       1D     90
     508      72       1       1       0       0       0       001010000D     91
     508       0       0       1       1                EDGELOOP       1D     92
     510      73       1       1       0       0       0       000010000D     93
     510       0       8       1       1                    FACE       1D     94
     128      74       1       1       0       0       0       001010000D     95
     128       0       8       5       0                  SPLSRF       1D     96
     508      79       1       1       0       0       0       001010000D     97
     508       0       0       1       1                EDGELOOP       2D     98
     508      80       1       1       0       0       0       001010000D     99
     508       0       0       1       1                EDGELOOP       3D    100
     510      81       1       1       0       0       0       000010000D    101
     510       0       8       1       1                    FACE       2D    102
     110      82       1       1       0       0       0       001010000D    103
     110       0       8       1       0                    LINE      11D    104
     110      83       1       1       0       0       0       001010000D    105
     110       0       8       1       0                    LINE      12D    106
     120      84       1       1       0       0       0       001010000D    107
     120       0       8       1       0                    SREV       2D    108
     508      85       1       1       0       0       0       001010000D    109
     508       0       0       1       1                EDGELOOP       4D    110
     510      86       1       1       0       0       0       000010000D    111
     510       0       8       1       1                    FACE       3D    112
     128      87       1       1       0       0       0       001010000D    113
     128       0       8       5       0                  SPLSRF       2D    114
     508      92       1       1       0       0       0       001010000D    115
     508       0       0       1       1                EDGELOOP       5D    116
     508      93       1       1       0       0       0       001010000D    117
     508       0       0       1       1                EDGELOOP       6D    118
     510      94       1       1       0       0       0       000010000D    119
     510       0       8       1       1                    FACE       4D    120
     110      95       1       1       0       0       0       001010000D    121
     110       0       8       2       0                    LINE      13D    122
     110      97       1       1       0       0       0       001010000D    123
     110       0       8       1       0                    LINE      14D    124
     120      98       1       1       0       0       0       001010000D    125
     120       0       8       1       0                    SREV       3D    126
     508      99       1       1       0       0       0       001010000D    127
     508       0       0       3       1                EDGELOOP       7D    128
     510     102       1       1       0       0       0       000010000D    129
     510       0       8       1       1                    FACE       5D    130
     110     103       1       1       0       0       0       001010000D    131
     110       0       8       2       0                    LINE      15D    132
     110     105       1       1       0       0       0       001010000D    133
     110       0       8       1       0                    LINE      16D    134
     120     106       1       1       0       0       0       001010000D    135
     120       0       8       1       0                    SREV       4D    136
     508     107       1       1       0       0       0       001010000D    137
     508       0       0       3       1                EDGELOOP       8D    138
     510     110       1       1       0       0       0       000010000D    139
     510       0       8       1       1                    FACE       6D    140
     514     111       1       1       0       0       0       000000000D    141
     514       0       8       1       1                   SHELL       1D    142
     186     112       1       1       0       0       0       000000000D    143
     186       0       8       1       0                    MSBR       1D    144
314,1.1D0,1.2D0,1D2;                                                   1P      1
314,1.1D1,1.1D1,1.1D1;                                                 3P      2
314,3.92D1,1.2D0,1.2D0;                                                5P      3
314,4.1D1,0D0,2.2D1;                                                   7P      4
314,8.784D1,9.49D1,1D2;                                                9P      5
314,9.6D1,9.6D1,9.6D1;                                                11P      6
314,9.8D1,6.27D1,0D0;                                                 13P      7
314,1D2,1D2,9.49D1;                                                   15P      8
110,1.65D2,-7.354D2,9.005755126010D-14,-1.65D2,-7.354D2,              17P      9
1.200767350135D-13;                                                   17P     10
124,0D0,0D0,1D0,-1.65D2,-1D0,0D0,0D0,0D0,0D0,-1D0,0D0,0D0;            19P     11
100,0D0,0D0,0D0,7.354D2,0D0,-7.354D2,9.005755126010D-14;              21P     12
124,0D0,0D0,1D0,-1.65D2,1D0,0D0,0D0,0D0,0D0,1D0,0D0,0D0;              23P     13
100,0D0,0D0,0D0,7.354D2,0D0,-7.354D2,9.005755126010D-14;              25P     14
124,0D0,0D0,-1D0,-1.65D2,0D0,1D0,0D0,5.401738626711D-14,1D0,0D0,      27P     15
0D0,0D0;                                                              27P     16
100,0D0,0D0,0D0,7.484D2,0D0,-7.484D2,9.164953952007D-14;              29P     17
124,0D0,0D0,-1D0,-1.65D2,0D0,-1D0,0D0,5.401738626711D-14,-1D0,        31P     18
0D0,0D0,0D0;                                                          31P     19
100,0D0,0D0,0D0,7.484D2,0D0,-7.484D2,9.164953952007D-14;              33P     20
110,1.65D2,7.354D2,-9.005755126010D-14,-1.65D2,7.354D2,               35P     21
-9.005755126010D-14;                                                  35P     22
124,0D0,0D0,1D0,1.65D2,-1D0,0D0,0D0,0D0,0D0,-1D0,0D0,0D0;             37P     23
100,0D0,0D0,0D0,7.354D2,0D0,-7.354D2,9.005755126010D-14;              39P     24
124,0D0,0D0,1D0,1.65D2,1D0,0D0,0D0,0D0,0D0,1D0,0D0,0D0;               41P     25
100,0D0,0D0,0D0,7.354D2,0D0,-7.354D2,9.005755126010D-14;              43P     26
124,0D0,0D0,-1D0,1.65D2,0D0,1D0,0D0,5.401738626711D-14,1D0,0D0,       45P     27
0D0,0D0;                                                              45P     28
100,0D0,0D0,0D0,7.484D2,0D0,-7.484D2,9.164953952007D-14;              47P     29
124,0D0,0D0,-1D0,1.65D2,0D0,-1D0,0D0,5.401738626711D-14,-1D0,         49P     30
0D0,0D0,0D0;                                                          49P     31
100,0D0,0D0,0D0,7.484D2,0D0,-7.484D2,9.164953952007D-14;              51P     32
124,0D0,0D0,-1D0,1.46D2,0D0,-1D0,0D0,5.401738626711D-14,-1D0,         53P     33
0D0,0D0,0D0;                                                          53P     34
100,0D0,0D0,0D0,7.484D2,0D0,4.582476976003D-14,7.484D2;               55P     35
110,1.46D2,0D0,-7.484D2,1.65D2,5.401738626711D-14,-7.484D2;           57P     36
110,-1.65D2,5.401738626711D-14,-7.484D2,-1.46D2,0D0,-7.484D2;         59P     37
124,0D0,0D0,-1D0,-1.46D2,0D0,-1D0,0D0,5.401738626711D-14,-1D0,        61P     38
0D0,0D0,0D0;                                                          61P     39
100,0D0,0D0,0D0,7.484D2,0D0,4.582476976003D-14,7.484D2;               63P     40
124,0D0,0D0,-1D0,1.46D2,0D0,1D0,0D0,5.401738626711D-14,1D0,0D0,       65P     41
0D0,0D0;                                                              65P     42
100,0D0,0D0,0D0,7.484D2,0D0,4.582476976003D-14,7.484D2;               67P     43
110,1.46D2,9.984215602714D-14,7.484D2,1.65D2,5.401738626711D-14,      69P     44
7.484D2;                                                              69P     45
110,-1.46D2,-7.484D2,-1.661781823259D-13,1.46D2,-7.484D2,             71P     46
-1.661781823259D-13;                                                  71P     47
110,-1.65D2,5.401738626711D-14,7.484D2,-1.46D2,                       73P     48
9.984215602714D-14,7.484D2;                                           73P     49
124,0D0,0D0,-1D0,-1.46D2,0D0,1D0,0D0,5.401738626711D-14,1D0,0D0,      75P     50
0D0,0D0;                                                              75P     51
100,0D0,0D0,0D0,7.484D2,0D0,4.582476976003D-14,7.484D2;               77P     52
110,-1.46D2,7.484D2,0D0,1.46D2,7.484D2,0D0;                           79P     53
502,16,-1.65D2,-7.354D2,9.005755126010D-14,-1.65D2,7.354D2,           81P     54
-1.801151025202D-13,1.65D2,-7.354D2,9.005755126010D-14,1.65D2,        81P     55
7.354D2,-1.801151025202D-13,-1.65D2,-3.763215325296D-14,7.484D2,      81P     56
-1.65D2,2.373164653072D-13,-7.484D2,1.65D2,-3.763215325296D-14,       81P     57
7.484D2,1.65D2,2.373164653072D-13,-7.484D2,-1.46D2,                   81P     58
9.984215602714D-14,7.484D2,-1.46D2,7.484D2,0D0,-1.46D2,               81P     59
9.984215602714D-14,-7.484D2,-1.46D2,-7.484D2,                         81P     60
-9.164953952007D-14,1.46D2,9.984215602714D-14,7.484D2,1.46D2,         81P     61
7.484D2,0D0,1.46D2,9.984215602714D-14,-7.484D2,1.46D2,-7.484D2,       81P     62
-9.164953952007D-14;                                                  81P     63
504,20,21,81,1,81,2,25,81,2,81,1,39,81,3,81,4,43,81,4,81,3,17,        83P     64
81,3,81,1,35,81,4,81,2,29,81,5,81,6,33,81,6,81,5,47,81,7,81,8,        83P     65
51,81,8,81,7,77,81,9,81,10,63,81,11,81,12,67,81,13,81,14,55,81,       83P     66
15,81,16,79,81,10,81,14,71,81,12,81,16,59,81,6,81,11,57,81,15,        83P     67
81,8,73,81,5,81,9,69,81,13,81,7;                                      83P     68
110,1.65D2,0D0,0D0,1.66D2,0D0,0D0;                                    85P     69
110,-1.716D2,-7.354D2,0D0,1.716D2,-7.354D2,0D0;                       87P     70
120,85,87,-6.283185307180D-2,3.204424506662D0;                        89P     71
508,4,0,83,1,1,0,0,83,6,0,0,0,83,3,0,0,0,83,5,1,0;                    91P     72
510,89,1,0,91;                                                        93P     73
128,1,1,1,1,0,0,1,0,0,-7.78336D2,-7.78336D2,7.78336D2,7.78336D2,      95P     74
-7.78336D2,-7.78336D2,7.78336D2,7.78336D2,1D0,1D0,1D0,1D0,            95P     75
-1.65D2,-7.78336D2,-7.78336D2,-1.65D2,-7.78336D2,7.78336D2,           95P     76
-1.65D2,7.78336D2,-7.78336D2,-1.65D2,7.78336D2,7.78336D2,             95P     77
-7.78336D2,7.78336D2,-7.78336D2,7.78336D2;                            95P     78
508,2,0,83,7,0,0,0,83,8,0,0;                                          97P     79
508,2,0,83,1,0,0,0,83,2,0,0;                                          99P     80
510,95,2,0,97,99;                                                    101P     81
110,1.65D2,0D0,0D0,1.66D2,0D0,0D0;                                   103P     82
110,-1.716D2,-7.354D2,0D0,1.716D2,-7.354D2,0D0;                      105P     83
120,103,105,3.078760800518D0,6.346017160251D0;                       107P     84
508,4,0,83,2,1,0,0,83,5,0,0,0,83,4,0,0,0,83,6,1,0;                   109P     85
510,107,1,0,109;                                                     111P     86
128,1,1,1,1,0,0,1,0,0,-7.78336D2,-7.78336D2,7.78336D2,7.78336D2,     113P     87
-7.78336D2,-7.78336D2,7.78336D2,7.78336D2,1D0,1D0,1D0,1D0,           113P     88
1.65D2,-7.78336D2,-7.78336D2,1.65D2,-7.78336D2,7.78336D2,1.65D2,     113P     89
7.78336D2,-7.78336D2,1.65D2,7.78336D2,7.78336D2,-7.78336D2,          113P     90
7.78336D2,-7.78336D2,7.78336D2;                                      113P     91
508,2,0,83,9,1,0,0,83,10,1,0;                                        115P     92
508,2,0,83,3,1,0,0,83,4,1,0;                                         117P     93
510,113,2,0,115,117;                                                 119P     94
110,2.681965379182D3,5.401738626711D-14,0D0,2.680965379182D3,        121P     95
5.401738626711D-14,0D0;                                              121P     96
110,1.716D2,7.484D2,0D0,-1.716D2,7.484D2,0D0;                        123P     97
120,121,123,-1.665044106403D0,3.235840433197D0;                      125P     98
508,12,0,83,14,0,0,0,83,18,1,0,0,83,9,0,0,0,83,20,0,0,0,83,13,1,     127P     99
0,0,83,15,0,0,0,83,11,0,0,0,83,19,0,0,0,83,7,1,0,0,83,17,1,0,0,      127P    100
83,12,1,0,0,83,16,1,0;                                               127P    101
510,125,1,0,127;                                                     129P    102
110,2.681965379182D3,5.401738626711D-14,0D0,2.680965379182D3,        131P    103
5.401738626711D-14,0D0;                                              131P    104
110,1.716D2,7.484D2,0D0,-1.716D2,7.484D2,0D0;                        133P    105
120,131,133,-4.806636759992D0,9.424777960769D-2;                     135P    106
508,12,0,83,13,0,0,0,83,20,1,0,0,83,10,0,0,0,83,18,0,0,0,83,14,      137P    107
1,0,0,83,16,0,0,0,83,12,0,0,0,83,17,0,0,0,83,8,1,0,0,83,19,1,0,      137P    108
0,83,11,1,0,0,83,15,1,0;                                             137P    109
510,135,1,0,137;                                                     139P    110
514,6,93,0,101,1,111,0,119,0,129,1,139,1;                            141P    111
186,141,1,0;                                                         143P    112
S      1G      4D    144P    112                                        T      1
