 PTC IGES file: mice25-5.igs                                            S      1
1H,,1H;,8HMICE25-5,12Hmice25-5.igs,                                     G      1
49HPro/ENGINEER by Parametric Technology Corporation,7H2004110,32,38,7, G      2
38,15,8HMICE25-5,1.,2,2HMM,32768,0.5,13H080428.080957,0.00807061,       G      3
80.7094,10Hliuxiaokun,7HUnknown,10,0,13H080428.080957;                  G      4
     314       1       1       1       0       0       0       001000200D      1
     314       0       4       1       0                   COLOR       1D      2
     314       2       1       1       0       0       0       001000200D      3
     314       0       1       1       0                   COLOR       2D      4
     314       3       1       1       0       0       0       001000200D      5
     314       0       1       1       0                   COLOR       3D      6
     314       4       1       1       0       0       0       001000200D      7
     314       0       1       1       0                   COLOR       4D      8
     314       5       1       1       0       0       0       001000200D      9
     314       0       8       1       0                   COLOR       5D     10
     314       6       1       1       0       0       0       001000200D     11
     314       0       8       1       0                   COLOR       6D     12
     314       7       1       1       0       0       0       001000200D     13
     314       0       5       1       0                   COLOR       7D     14
     314       8       1       1       0       0       0       001000200D     15
     314       0       5       1       0                   COLOR       8D     16
     314       9       1       1       0       0       0       001000200D     17
     314       0       8       1       0                   COLOR       9D     18
     124      10       1       1       0       0       0       001000000D     19
     124       0       0       1       0                   XFORM       1D     20
     100      11       1       1       0       0      19       001010000D     21
     100       0     -15       1       0                     ARC       1D     22
     124      12       1       1       0       0       0       001000000D     23
     124       0       0       1       0                   XFORM       2D     24
     100      13       1       1       0       0      23       001010000D     25
     100       0     -15       1       0                     ARC       2D     26
     124      14       1       1       0       0       0       001000000D     27
     124       0       0       1       0                   XFORM       3D     28
     100      15       1       1       0       0      27       001010000D     29
     100       0     -15       1       0                     ARC       3D     30
     124      16       1       1       0       0       0       001000000D     31
     124       0       0       2       0                   XFORM       4D     32
     100      18       1       1       0       0      31       001010000D     33
     100       0     -15       1       0                     ARC       4D     34
     124      19       1       1       0       0       0       001000000D     35
     124       0       0       1       0                   XFORM       5D     36
     100      20       1       1       0       0      35       001010000D     37
     100       0     -15       1       0                     ARC       5D     38
     124      21       1       1       0       0       0       001000000D     39
     124       0       0       2       0                   XFORM       6D     40
     100      23       1       1       0       0      39       001010000D     41
     100       0     -15       1       0                     ARC       6D     42
     124      24       1       1       0       0       0       001000000D     43
     124       0       0       1       0                   XFORM       7D     44
     100      25       1       1       0       0      43       001010000D     45
     100       0     -15       1       0                     ARC       7D     46
     124      26       1       1       0       0       0       001000000D     47
     124       0       0       1       0                   XFORM       8D     48
     100      27       1       1       0       0      47       001010000D     49
     100       0     -15       1       0                     ARC       8D     50
     124      28       1       1       0       0       0       001000000D     51
     124       0       0       1       0                   XFORM       9D     52
     100      29       1       1       0       0      51       001010000D     53
     100       0     -15       1       0                     ARC       9D     54
     124      30       1       1       0       0       0       001000000D     55
     124       0       0       2       0                   XFORM      10D     56
     100      32       1       1       0       0      55       001010000D     57
     100       0     -15       1       0                     ARC      10D     58
     124      33       1       1       0       0       0       001000000D     59
     124       0       0       1       0                   XFORM      11D     60
     100      34       1       1       0       0      59       001010000D     61
     100       0     -15       1       0                     ARC      11D     62
     124      35       1       1       0       0       0       001000000D     63
     124       0       0       2       0                   XFORM      12D     64
     100      37       1       1       0       0      63       001010000D     65
     100       0     -15       1       0                     ARC      12D     66
     502      38       1       1       0       0       0       001010000D     67
     502       0     -15       4       1                  VERTEX       1D     68
     504      42       1       1       0       0       0       000010001D     69
     504       0     -15       3       1                    EDGE       1D     70
     110      45       1       1       0       0       0       001010000D     71
     110       0     -15       1       0                    LINE       1D     72
     124      46       1       1       0       0       0       001000000D     73
     124       0       0       2       0                   XFORM      13D     74
     100      48       1       1       0       0      73       001010000D     75
     100       0     -15       1       0                     ARC      13D     76
     120      49       1       1       0       0       0       001010000D     77
     120       0     -15       1       0                    SREV       1D     78
     508      50       1       1       0       0       0       001010000D     79
     508       0       0       1       1                EDGELOOP       1D     80
     510      51       1       1       0       0       0       000010000D     81
     510       0     -15       1       1                    FACE       1D     82
     128      52       1       1       0       0       0       001010000D     83
     128       0     -15       8       0                  SPLSRF       1D     84
     508      60       1       1       0       0       0       001010000D     85
     508       0       0       1       1                EDGELOOP       2D     86
     508      61       1       1       0       0       0       001010000D     87
     508       0       0       1       1                EDGELOOP       3D     88
     510      62       1       1       0       0       0       000010000D     89
     510       0     -15       1       1                    FACE       2D     90
     110      63       1       1       0       0       0       001010000D     91
     110       0     -15       1       0                    LINE       2D     92
     124      64       1       1       0       0       0       001000000D     93
     124       0       0       2       0                   XFORM      14D     94
     100      66       1       1       0       0      93       001010000D     95
     100       0     -15       1       0                     ARC      14D     96
     120      67       1       1       0       0       0       001010000D     97
     120       0     -15       1       0                    SREV       2D     98
     508      68       1       1       0       0       0       001010000D     99
     508       0       0       1       1                EDGELOOP       4D    100
     510      69       1       1       0       0       0       000010000D    101
     510       0     -15       1       1                    FACE       3D    102
     128      70       1       1       0       0       0       001010000D    103
     128       0     -15       8       0                  SPLSRF       2D    104
     508      78       1       1       0       0       0       001010000D    105
     508       0       0       1       1                EDGELOOP       5D    106
     508      79       1       1       0       0       0       001010000D    107
     508       0       0       1       1                EDGELOOP       6D    108
     510      80       1       1       0       0       0       000010000D    109
     510       0     -15       1       1                    FACE       4D    110
     110      81       1       1       0       0       0       001010000D    111
     110       0     -15       1       0                    LINE       3D    112
     124      82       1       1       0       0       0       001000000D    113
     124       0       0       2       0                   XFORM      15D    114
     100      84       1       1       0       0     113       001010000D    115
     100       0     -15       1       0                     ARC      15D    116
     120      85       1       1       0       0       0       001010000D    117
     120       0     -15       1       0                    SREV       3D    118
     508      86       1       1       0       0       0       001010000D    119
     508       0       0       1       1                EDGELOOP       7D    120
     510      87       1       1       0       0       0       000010000D    121
     510       0     -15       1       1                    FACE       5D    122
     110      88       1       1       0       0       0       001010000D    123
     110       0     -15       1       0                    LINE       4D    124
     124      89       1       1       0       0       0       001000000D    125
     124       0       0       2       0                   XFORM      16D    126
     100      91       1       1       0       0     125       001010000D    127
     100       0     -15       1       0                     ARC      16D    128
     120      92       1       1       0       0       0       001010000D    129
     120       0     -15       1       0                    SREV       4D    130
     508      93       1       1       0       0       0       001010000D    131
     508       0       0       1       1                EDGELOOP       8D    132
     510      94       1       1       0       0       0       000010000D    133
     510       0     -15       1       1                    FACE       6D    134
     514      95       1       1       0       0       0       000000000D    135
     514       0     -15       1       1                   SHELL       1D    136
     186      96       1       1       0       0       0       000000000D    137
     186       0     -15       1       0                    MSBR       1D    138
314,1.1D0,1.2D0,1D2;                                                   1P      1
314,1.1D1,1.1D1,1.1D1;                                                 3P      2
314,3.92D1,1.2D0,1.2D0;                                                5P      3
314,4.1D1,0D0,2.2D1;                                                   7P      4
314,8.784D1,9.49D1,1D2;                                                9P      5
314,9.6D1,9.6D1,9.6D1;                                                11P      6
314,9.8D1,6.27D1,0D0;                                                 13P      7
314,1D2,6.62356D1,2.35923D1;                                          15P      8
314,1D2,1D2,9.49D1;                                                   17P      9
124,0D0,0D0,1D0,1.3D0,0D0,-1D0,0D0,0D0,1D0,0D0,0D0,0D0;               19P     10
100,0D0,0D0,0D0,2.801986841536D1,0D0,-2.801986841536D1,0D0;           21P     11
124,0D0,0D0,1D0,-1.3D0,0D0,-1D0,0D0,0D0,1D0,0D0,0D0,0D0;              23P     12
100,0D0,0D0,0D0,2.801986841536D1,0D0,-2.801986841536D1,0D0;           25P     13
124,0D0,0D0,1D0,1.3D0,0D0,1D0,0D0,0D0,-1D0,0D0,0D0,0D0;               27P     14
100,0D0,0D0,0D0,2.801986841536D1,0D0,-2.801986841536D1,0D0;           29P     15
124,6.5D-1,-7.599342076785D-1,0D0,0D0,0D0,0D0,-1D0,0D0,               31P     16
7.599342076785D-1,6.5D-1,0D0,2.65D1;                                  31P     17
100,0D0,0D0,0D0,2D0,0D0,3.1D-1,1.975828939964D0;                      33P     18
124,0D0,0D0,1D0,-1.3D0,0D0,1D0,0D0,0D0,-1D0,0D0,0D0,0D0;              35P     19
100,0D0,0D0,0D0,2.801986841536D1,0D0,-2.801986841536D1,0D0;           37P     20
124,6.5D-1,-7.599342076785D-1,0D0,0D0,0D0,0D0,1D0,0D0,                39P     21
-7.599342076785D-1,-6.5D-1,0D0,-2.65D1;                               39P     22
100,0D0,0D0,0D0,2D0,0D0,3.1D-1,1.975828939964D0;                      41P     23
124,0D0,0D0,1D0,1.3D0,0D0,-1D0,0D0,0D0,1D0,0D0,0D0,0D0;               43P     24
100,0D0,0D0,0D0,2.498013158464D1,0D0,-2.498013158464D1,0D0;           45P     25
124,0D0,0D0,-1D0,-1.3D0,0D0,-1D0,0D0,0D0,-1D0,0D0,0D0,0D0;            47P     26
100,0D0,0D0,0D0,2.498013158464D1,0D0,-2.498013158464D1,0D0;           49P     27
124,0D0,0D0,1D0,1.3D0,0D0,1D0,0D0,0D0,-1D0,0D0,0D0,0D0;               51P     28
100,0D0,0D0,0D0,2.498013158464D1,0D0,-2.498013158464D1,0D0;           53P     29
124,-6.5D-1,7.599342076785D-1,0D0,0D0,0D0,0D0,1D0,0D0,                55P     30
7.599342076785D-1,6.5D-1,0D0,-2.65D1;                                 55P     31
100,0D0,0D0,0D0,2D0,0D0,3.1D-1,1.975828939964D0;                      57P     32
124,0D0,0D0,-1D0,-1.3D0,0D0,1D0,0D0,0D0,1D0,0D0,0D0,0D0;              59P     33
100,0D0,0D0,0D0,2.498013158464D1,0D0,-2.498013158464D1,0D0;           61P     34
124,-6.5D-1,7.599342076785D-1,0D0,0D0,0D0,0D0,-1D0,0D0,               63P     35
-7.599342076785D-1,-6.5D-1,0D0,2.65D1;                                63P     36
100,0D0,0D0,0D0,2D0,0D0,3.1D-1,1.975828939964D0;                      65P     37
502,8,1.3D0,0D0,2.801986841536D1,1.3D0,0D0,-2.801986841536D1,         67P     38
-1.3D0,0D0,2.801986841536D1,-1.3D0,0D0,-2.801986841536D1,1.3D0,       67P     39
0D0,2.498013158464D1,1.3D0,0D0,-2.498013158464D1,-1.3D0,0D0,          67P     40
-2.498013158464D1,-1.3D0,0D0,2.498013158464D1;                        67P     41
504,12,21,67,1,67,2,25,67,3,67,4,45,67,5,67,6,49,67,7,67,8,29,        69P     42
67,2,67,1,37,67,4,67,3,53,67,6,67,5,61,67,8,67,7,41,67,2,67,4,        69P     43
57,67,7,67,6,33,67,1,67,3,65,67,8,67,5;                               69P     44
110,0D0,0D0,0D0,-1D0,0D0,0D0;                                         71P     45
124,6.860239094806D-1,-7.275789961379D-1,0D0,0D0,0D0,0D0,1D0,         73P     46
0D0,-7.275789961379D-1,-6.860239094806D-1,0D0,-2.65D1;                73P     47
100,0D0,0D0,0D0,2D0,0D0,1.174847824840D-1,1.996546349546D0;           75P     48
120,71,75,-6.283185307180D-2,3.204424506662D0;                        77P     49
508,4,0,69,1,1,0,0,69,9,1,0,0,69,2,0,0,0,69,11,0,0;                   79P     50
510,77,1,0,79;                                                        81P     51
128,1,1,1,1,0,0,1,0,0,2.085933684803D1,2.085933684803D1,              83P     52
7.914066315197D1,7.914066315197D1,1.083926534394D1,                   83P     53
1.083926534394D1,6.916073465606D1,6.916073465606D1,1D0,1D0,1D0,       83P     54
1D0,1.3D0,-2.916073465606D1,-2.914066315197D1,1.3D0,                  83P     55
-2.916073465606D1,2.914066315197D1,1.3D0,2.916073465606D1,            83P     56
-2.914066315197D1,1.3D0,2.916073465606D1,2.914066315197D1,            83P     57
2.085933684803D1,7.914066315197D1,1.083926534394D1,                   83P     58
6.916073465606D1;                                                     83P     59
508,2,0,69,1,0,0,0,69,5,0,0;                                          85P     60
508,2,0,69,3,1,0,0,69,7,1,0;                                          87P     61
510,83,2,0,85,87;                                                     89P     62
110,0D0,0D0,0D0,-1D0,0D0,0D0;                                         91P     63
124,6.860239094806D-1,-7.275789961379D-1,0D0,0D0,0D0,0D0,1D0,         93P     64
0D0,-7.275789961379D-1,-6.860239094806D-1,0D0,-2.65D1;                93P     65
100,0D0,0D0,0D0,2D0,0D0,1.174847824840D-1,1.996546349546D0;           95P     66
120,91,95,-3.204424506662D0,6.283185307180D-2;                        97P     67
508,4,0,69,5,1,0,0,69,11,1,0,0,69,6,0,0,0,69,9,0,0;                   99P     68
510,97,1,0,99;                                                       101P     69
128,1,1,1,1,0,0,1,0,0,2.085933684803D1,2.085933684803D1,             103P     70
7.914066315197D1,7.914066315197D1,1.083926534394D1,                  103P     71
1.083926534394D1,6.916073465606D1,6.916073465606D1,1D0,1D0,1D0,      103P     72
1D0,-1.3D0,-2.916073465606D1,2.914066315197D1,-1.3D0,                103P     73
-2.916073465606D1,-2.914066315197D1,-1.3D0,2.916073465606D1,         103P     74
2.914066315197D1,-1.3D0,2.916073465606D1,-2.914066315197D1,          103P     75
2.085933684803D1,7.914066315197D1,1.083926534394D1,                  103P     76
6.916073465606D1;                                                    103P     77
508,2,0,69,2,1,0,0,69,6,1,0;                                         105P     78
508,2,0,69,4,1,0,0,69,8,1,0;                                         107P     79
510,103,2,0,105,107;                                                 109P     80
110,0D0,0D0,0D0,-1D0,0D0,0D0;                                        111P     81
124,-6.860239094806D-1,7.275789961379D-1,0D0,0D0,0D0,0D0,1D0,        113P     82
0D0,7.275789961379D-1,6.860239094806D-1,0D0,-2.65D1;                 113P     83
100,0D0,0D0,0D0,2D0,0D0,1.174847824840D-1,1.996546349546D0;          115P     84
120,111,115,-6.283185307180D-2,3.204424506662D0;                     117P     85
508,4,0,69,3,0,0,0,69,12,0,0,0,69,4,0,0,0,69,10,1,0;                 119P     86
510,117,1,0,119;                                                     121P     87
110,0D0,0D0,0D0,-1D0,0D0,0D0;                                        123P     88
124,-6.860239094806D-1,7.275789961379D-1,0D0,0D0,0D0,0D0,1D0,        125P     89
0D0,7.275789961379D-1,6.860239094806D-1,0D0,-2.65D1;                 125P     90
100,0D0,0D0,0D0,2D0,0D0,1.174847824840D-1,1.996546349546D0;          127P     91
120,123,127,-3.204424506662D0,6.283185307180D-2;                     129P     92
508,4,0,69,7,0,0,0,69,10,0,0,0,69,8,0,0,0,69,12,1,0;                 131P     93
510,129,1,0,131;                                                     133P     94
514,6,81,1,89,0,101,1,109,0,121,1,133,1;                             135P     95
186,135,1,0;                                                         137P     96
S      1G      4D    138P     96                                        T      1
