 PTC IGES file: mice24-004.igs                                          S      1
1H,,1H;,10HMICE24-004,14Hmice24-004.igs,                                G      1
49HPro/ENGINEER by Parametric Technology Corporation,7H2004110,32,38,7, G      2
38,15,10HMICE24-004,1.,2,2HMM,32768,0.5,13H080428.081000,0.00289298,    G      3
 28.931,10Hliuxiaokun,7HUnknown,10,0,13H080428.081000;                  G      4
     314       1       1       1       0       0       0       001000200D      1
     314       0       4       1       0                   COLOR       1D      2
     314       2       1       1       0       0       0       001000200D      3
     314       0       1       1       0                   COLOR       2D      4
     314       3       1       1       0       0       0       001000200D      5
     314       0       1       1       0                   COLOR       3D      6
     314       4       1       1       0       0       0       001000200D      7
     314       0       1       1       0                   COLOR       4D      8
     314       5       1       1       0       0       0       001000200D      9
     314       0       8       1       0                   COLOR       5D     10
     314       6       1       1       0       0       0       001000200D     11
     314       0       8       1       0                   COLOR       6D     12
     314       7       1       1       0       0       0       001000200D     13
     314       0       5       1       0                   COLOR       7D     14
     314       8       1       1       0       0       0       001000200D     15
     314       0       5       1       0                   COLOR       8D     16
     314       9       1       1       0       0       0       001000200D     17
     314       0       8       1       0                   COLOR       9D     18
     110      10       1       1       0       0       0       001010000D     19
     110       0     -15       1       0                    LINE       1D     20
     110      11       1       1       0       0       0       001010000D     21
     110       0     -15       1       0                    LINE       2D     22
     110      12       1       1       0       0       0       001010000D     23
     110       0     -15       1       0                    LINE       3D     24
     110      13       1       1       0       0       0       001010000D     25
     110       0     -15       1       0                    LINE       4D     26
     124      14       1       1       0       0       0       001000000D     27
     124       0       0       1       0                   XFORM       1D     28
     100      15       1       1       0       0      27       001010000D     29
     100       0     -15       1       0                     ARC       1D     30
     110      16       1       1       0       0       0       001010000D     31
     110       0     -15       1       0                    LINE       5D     32
     124      17       1       1       0       0       0       001000000D     33
     124       0       0       1       0                   XFORM       2D     34
     100      18       1       1       0       0      33       001010000D     35
     100       0     -15       1       0                     ARC       2D     36
     110      19       1       1       0       0       0       001010000D     37
     110       0     -15       1       0                    LINE       6D     38
     110      20       1       1       0       0       0       001010000D     39
     110       0     -15       1       0                    LINE       7D     40
     110      21       1       1       0       0       0       001010000D     41
     110       0     -15       1       0                    LINE       8D     42
     110      22       1       1       0       0       0       001010000D     43
     110       0     -15       1       0                    LINE       9D     44
     110      23       1       1       0       0       0       001010000D     45
     110       0     -15       1       0                    LINE      10D     46
     110      24       1       1       0       0       0       001010000D     47
     110       0     -15       1       0                    LINE      11D     48
     110      25       1       1       0       0       0       001010000D     49
     110       0     -15       1       0                    LINE      12D     50
     110      26       1       1       0       0       0       001010000D     51
     110       0     -15       1       0                    LINE      13D     52
     124      27       1       1       0       0       0       001000000D     53
     124       0       0       1       0                   XFORM       3D     54
     100      28       1       1       0       0      53       001010000D     55
     100       0     -15       1       0                     ARC       3D     56
     110      29       1       1       0       0       0       001010000D     57
     110       0     -15       1       0                    LINE      14D     58
     124      30       1       1       0       0       0       001000000D     59
     124       0       0       1       0                   XFORM       4D     60
     100      31       1       1       0       0      59       001010000D     61
     100       0     -15       1       0                     ARC       4D     62
     110      32       1       1       0       0       0       001010000D     63
     110       0     -15       1       0                    LINE      15D     64
     110      33       1       1       0       0       0       001010000D     65
     110       0     -15       1       0                    LINE      16D     66
     110      34       1       1       0       0       0       001010000D     67
     110       0     -15       1       0                    LINE      17D     68
     110      35       1       1       0       0       0       001010000D     69
     110       0     -15       1       0                    LINE      18D     70
     110      36       1       1       0       0       0       001010000D     71
     110       0     -15       1       0                    LINE      19D     72
     110      37       1       1       0       0       0       001010000D     73
     110       0     -15       1       0                    LINE      20D     74
     110      38       1       1       0       0       0       001010000D     75
     110       0     -15       1       0                    LINE      21D     76
     110      39       1       1       0       0       0       001010000D     77
     110       0     -15       1       0                    LINE      22D     78
     110      40       1       1       0       0       0       001010000D     79
     110       0     -15       1       0                    LINE      23D     80
     110      41       1       1       0       0       0       001010000D     81
     110       0     -15       1       0                    LINE      24D     82
     110      42       1       1       0       0       0       001010000D     83
     110       0     -15       1       0                    LINE      25D     84
     110      43       1       1       0       0       0       001010000D     85
     110       0     -15       1       0                    LINE      26D     86
     110      44       1       1       0       0       0       001010000D     87
     110       0     -15       1       0                    LINE      27D     88
     110      45       1       1       0       0       0       001010000D     89
     110       0     -15       1       0                    LINE      28D     90
     110      46       1       1       0       0       0       001010000D     91
     110       0     -15       1       0                    LINE      29D     92
     110      47       1       1       0       0       0       001010000D     93
     110       0     -15       1       0                    LINE      30D     94
     110      48       1       1       0       0       0       001010000D     95
     110       0     -15       1       0                    LINE      31D     96
     110      49       1       1       0       0       0       001010000D     97
     110       0     -15       1       0                    LINE      32D     98
     502      50       1       1       0       0       0       001010000D     99
     502       0     -15       6       1                  VERTEX       1D    100
     504      56       1       1       0       0       0       000010001D    101
     504       0     -15       9       1                    EDGE       1D    102
     128      65       1       1       0       0       0       001010000D    103
     128       0     -15       4       0                  SPLSRF       1D    104
     508      69       1       1       0       0       0       001010000D    105
     508       0       0       1       1                EDGELOOP       1D    106
     508      70       1       1       0       0       0       001010000D    107
     508       0       0       1       1                EDGELOOP       2D    108
     510      71       1       1       0       0       0       000010000D    109
     510       0     -15       1       1                    FACE       1D    110
     128      72       1       1       0       0       0       001010000D    111
     128       0     -15       4       0                  SPLSRF       2D    112
     508      76       1       1       0       0       0       001010000D    113
     508       0       0       1       1                EDGELOOP       3D    114
     510      77       1       1       0       0       0       000010000D    115
     510       0     -15       1       1                    FACE       2D    116
     128      78       1       1       0       0       0       001010000D    117
     128       0     -15       4       0                  SPLSRF       3D    118
     508      82       1       1       0       0       0       001010000D    119
     508       0       0       2       1                EDGELOOP       4D    120
     510      84       1       1       0       0       0       000010000D    121
     510       0     -15       1       1                    FACE       3D    122
     128      85       1       1       0       0       0       001010000D    123
     128       0     -15       4       0                  SPLSRF       4D    124
     508      89       1       1       0       0       0       001010000D    125
     508       0       0       1       1                EDGELOOP       5D    126
     510      90       1       1       0       0       0       000010000D    127
     510       0     -15       1       1                    FACE       4D    128
     128      91       1       1       0       0       0       001010000D    129
     128       0     -15       5       0                  SPLSRF       5D    130
     508      96       1       1       0       0       0       001010000D    131
     508       0       0       1       1                EDGELOOP       6D    132
     510      97       1       1       0       0       0       000010000D    133
     510       0     -15       1       1                    FACE       5D    134
     128      98       1       1       0       0       0       001010000D    135
     128       0     -15       4       0                  SPLSRF       6D    136
     508     102       1       1       0       0       0       001010000D    137
     508       0       0       1       1                EDGELOOP       7D    138
     508     103       1       1       0       0       0       001010000D    139
     508       0       0       1       1                EDGELOOP       8D    140
     510     104       1       1       0       0       0       000010000D    141
     510       0     -15       1       1                    FACE       6D    142
     128     105       1       1       0       0       0       001010000D    143
     128       0     -15       4       0                  SPLSRF       7D    144
     508     109       1       1       0       0       0       001010000D    145
     508       0       0       1       1                EDGELOOP       9D    146
     510     110       1       1       0       0       0       000010000D    147
     510       0     -15       1       1                    FACE       7D    148
     110     111       1       1       0       0       0       001010000D    149
     110       0     -15       1       0                    LINE      33D    150
     110     112       1       1       0       0       0       001010000D    151
     110       0     -15       1       0                    LINE      34D    152
     120     113       1       1       0       0       0       001010000D    153
     120       0     -15       1       0                    SREV       1D    154
     508     114       1       1       0       0       0       001010000D    155
     508       0       0       1       1                EDGELOOP      10D    156
     510     115       1       1       0       0       0       000010000D    157
     510       0     -15       1       1                    FACE       8D    158
     128     116       1       1       0       0       0       001010000D    159
     128       0     -15       4       0                  SPLSRF       8D    160
     508     120       1       1       0       0       0       001010000D    161
     508       0       0       1       1                EDGELOOP      11D    162
     510     121       1       1       0       0       0       000010000D    163
     510       0     -15       1       1                    FACE       9D    164
     110     122       1       1       0       0       0       001010000D    165
     110       0     -15       1       0                    LINE      35D    166
     110     123       1       1       0       0       0       001010000D    167
     110       0     -15       1       0                    LINE      36D    168
     120     124       1       1       0       0       0       001010000D    169
     120       0     -15       1       0                    SREV       2D    170
     508     125       1       1       0       0       0       001010000D    171
     508       0       0       1       1                EDGELOOP      12D    172
     510     126       1       1       0       0       0       000010000D    173
     510       0     -15       1       1                    FACE      10D    174
     128     127       1       1       0       0       0       001010000D    175
     128       0     -15       4       0                  SPLSRF       9D    176
     508     131       1       1       0       0       0       001010000D    177
     508       0       0       1       1                EDGELOOP      13D    178
     510     132       1       1       0       0       0       000010000D    179
     510       0     -15       1       1                    FACE      11D    180
     128     133       1       1       0       0       0       001010000D    181
     128       0     -15       5       0                  SPLSRF      10D    182
     508     138       1       1       0       0       0       001010000D    183
     508       0       0       1       1                EDGELOOP      14D    184
     510     139       1       1       0       0       0       000010000D    185
     510       0     -15       1       1                    FACE      12D    186
     128     140       1       1       0       0       0       001010000D    187
     128       0     -15       4       0                  SPLSRF      11D    188
     508     144       1       1       0       0       0       001010000D    189
     508       0       0       2       1                EDGELOOP      15D    190
     510     146       1       1       0       0       0       000010000D    191
     510       0     -15       1       1                    FACE      13D    192
     128     147       1       1       0       0       0       001010000D    193
     128       0     -15       4       0                  SPLSRF      12D    194
     508     151       1       1       0       0       0       001010000D    195
     508       0       0       1       1                EDGELOOP      16D    196
     510     152       1       1       0       0       0       000010000D    197
     510       0     -15       1       1                    FACE      14D    198
     514     153       1       1       0       0       0       000000000D    199
     514       0     -15       2       1                   SHELL       1D    200
     186     155       1       1       0       0       0       000000000D    201
     186       0     -15       1       0                    MSBR       1D    202
314,1.1D0,1.2D0,1D2;                                                   1P      1
314,1.1D1,1.1D1,1.1D1;                                                 3P      2
314,3.92D1,1.2D0,1.2D0;                                                5P      3
314,4.1D1,0D0,2.2D1;                                                   7P      4
314,8.784D1,9.49D1,1D2;                                                9P      5
314,9.6D1,9.6D1,9.6D1;                                                11P      6
314,9.8D1,6.27D1,0D0;                                                 13P      7
314,1D2,6.62356D1,2.35923D1;                                          15P      8
314,1D2,1D2,9.49D1;                                                   17P      9
110,0D0,0D0,2.4D1,0D0,0D0,0D0;                                        19P     10
110,0D0,-1.5D1,2.4D1,0D0,0D0,2.4D1;                                   21P     11
110,0D0,-1.5D1,0D0,0D0,-1.5D1,2.4D1;                                  23P     12
110,0D0,0D0,0D0,0D0,-1.5D1,0D0;                                       25P     13
124,0D0,0D0,-1D0,0D0,-1D0,0D0,0D0,-7.5D0,0D0,1D0,0D0,8D0;             27P     14
100,0D0,0D0,0D0,2.25D0,0D0,-2.25D0,0D0;                               29P     15
110,0D0,-5.25D0,8D0,0D0,-5.25D0,4D0;                                  31P     16
124,0D0,0D0,-1D0,0D0,1D0,0D0,0D0,-7.5D0,0D0,-1D0,0D0,4D0;             33P     17
100,0D0,0D0,0D0,2.25D0,0D0,-2.25D0,0D0;                               35P     18
110,0D0,-9.75D0,4D0,0D0,-9.75D0,8D0;                                  37P     19
110,0D0,0D0,2.4D1,6D0,0D0,2.4D1;                                      39P     20
110,4D0,-1D1,0D0,4D0,-1.42D1,0D0;                                     41P     21
110,6D0,-1D1,0D0,4D0,-1D1,0D0;                                        43P     22
110,0D0,0D0,0D0,6D0,0D0,0D0;                                          45P     23
110,6D0,-1.42D1,0D0,4D0,-1.42D1,0D0;                                  47P     24
110,4D0,-1.42D1,0D0,4D0,-1.42D1,2.4D1;                                49P     25
110,4D0,-1D1,2.4D1,4D0,-1D1,0D0;                                      51P     26
124,0D0,0D0,-1D0,6D0,-1D0,0D0,0D0,-7.5D0,0D0,1D0,0D0,8D0;             53P     27
100,0D0,0D0,0D0,2.25D0,0D0,-2.25D0,0D0;                               55P     28
110,6D0,-9.75D0,4D0,6D0,-9.75D0,8D0;                                  57P     29
124,0D0,0D0,-1D0,6D0,1D0,0D0,0D0,-7.5D0,0D0,-1D0,0D0,4D0;             59P     30
100,0D0,0D0,0D0,2.25D0,0D0,-2.25D0,0D0;                               61P     31
110,6D0,-5.25D0,8D0,6D0,-5.25D0,4D0;                                  63P     32
110,6D0,-1D1,0D0,6D0,-1D1,2.4D1;                                      65P     33
110,6D0,-1D1,2.4D1,6D0,0D0,2.4D1;                                     67P     34
110,6D0,0D0,2.4D1,6D0,0D0,0D0;                                        69P     35
110,6D0,0D0,0D0,6D0,-1D1,0D0;                                         71P     36
110,6D0,-1.42D1,0D0,6D0,-1.42D1,2.4D1;                                73P     37
110,6D0,-1.42D1,0D0,6D0,-1.5D1,0D0;                                   75P     38
110,6D0,-1.5D1,0D0,6D0,-1.5D1,2.4D1;                                  77P     39
110,6D0,-1.5D1,2.4D1,6D0,-1.42D1,2.4D1;                               79P     40
110,0D0,-9.75D0,4D0,6D0,-9.75D0,4D0;                                  81P     41
110,0D0,-9.75D0,8D0,6D0,-9.75D0,8D0;                                  83P     42
110,0D0,-5.25D0,8D0,6D0,-5.25D0,8D0;                                  85P     43
110,0D0,-5.25D0,4D0,6D0,-5.25D0,4D0;                                  87P     44
110,4D0,-1D1,2.4D1,4D0,-1.42D1,2.4D1;                                 89P     45
110,6D0,-1.42D1,2.4D1,4D0,-1.42D1,2.4D1;                              91P     46
110,0D0,-1.5D1,2.4D1,6D0,-1.5D1,2.4D1;                                93P     47
110,6D0,-1D1,2.4D1,4D0,-1D1,2.4D1;                                    95P     48
110,0D0,-1.5D1,0D0,6D0,-1.5D1,0D0;                                    97P     49
502,24,0D0,0D0,2.4D1,0D0,0D0,0D0,0D0,-1.5D1,0D0,0D0,-1.5D1,           99P     50
2.4D1,6D0,0D0,2.4D1,6D0,0D0,0D0,6D0,-1.5D1,0D0,6D0,-1.5D1,2.4D1,      99P     51
0D0,-9.75D0,8D0,0D0,-5.25D0,8D0,0D0,-5.25D0,4D0,0D0,-9.75D0,4D0,      99P     52
6D0,-9.75D0,8D0,6D0,-5.25D0,8D0,6D0,-5.25D0,4D0,6D0,-9.75D0,4D0,      99P     53
6D0,-1D1,0D0,6D0,-1D1,2.4D1,6D0,-1.42D1,0D0,6D0,-1.42D1,2.4D1,        99P     54
4D0,-1D1,0D0,4D0,-1.42D1,0D0,4D0,-1D1,2.4D1,4D0,-1.42D1,2.4D1;        99P     55
504,36,19,99,1,99,2,25,99,2,99,3,23,99,3,99,4,21,99,4,99,1,69,       101P     56
99,5,99,6,77,99,7,99,8,39,99,1,99,5,45,99,2,99,6,97,99,3,99,7,       101P     57
93,99,4,99,8,29,99,9,99,10,35,99,11,99,12,55,99,13,99,14,61,99,      101P     58
15,99,16,85,99,10,99,14,87,99,11,99,15,81,99,12,99,16,83,99,9,       101P     59
99,13,31,99,10,99,11,37,99,12,99,9,63,99,14,99,15,57,99,16,99,       101P     60
13,65,99,17,99,18,73,99,19,99,20,41,99,21,99,22,43,99,17,99,21,      101P     61
47,99,19,99,22,89,99,23,99,24,95,99,18,99,23,91,99,20,99,24,71,      101P     62
99,6,99,17,75,99,19,99,7,79,99,8,99,20,67,99,18,99,5,51,99,23,       101P     63
99,21,49,99,22,99,24;                                                101P     64
128,1,1,1,1,0,0,1,0,0,-3D-1,-3D-1,1.53D1,1.53D1,-4.8D-1,-4.8D-1,     103P     65
2.448D1,2.448D1,1D0,1D0,1D0,1D0,0D0,3D-1,-4.8D-1,0D0,-1.53D1,        103P     66
-4.8D-1,0D0,3D-1,2.448D1,0D0,-1.53D1,2.448D1,-3D-1,1.53D1,           103P     67
-4.8D-1,2.448D1;                                                     103P     68
508,4,0,101,1,0,0,0,101,4,0,0,0,101,3,0,0,0,101,2,0,0;               105P     69
508,4,0,101,11,1,0,0,101,19,1,0,0,101,12,1,0,0,101,20,1,0;           107P     70
510,103,2,0,105,107;                                                 109P     71
128,1,1,1,1,0,0,1,0,0,-4.8D-1,-4.8D-1,2.448D1,2.448D1,-1.2D-1,       111P     72
-1.2D-1,6.12D0,6.12D0,1D0,1D0,1D0,1D0,-1.2D-1,0D0,2.448D1,           111P     73
-1.2D-1,0D0,-4.8D-1,6.12D0,0D0,2.448D1,6.12D0,0D0,-4.8D-1,           111P     74
-4.8D-1,2.448D1,-1.2D-1,6.12D0;                                      111P     75
508,4,0,101,1,1,0,0,101,8,1,0,0,101,5,0,0,0,101,7,0,0;               113P     76
510,111,1,0,113;                                                     115P     77
128,1,1,1,1,0,0,1,0,0,-3D-1,-3D-1,1.53D1,1.53D1,-1.2D-1,-1.2D-1,     117P     78
6.12D0,6.12D0,1D0,1D0,1D0,1D0,-1.2D-1,3D-1,0D0,-1.2D-1,-1.53D1,      117P     79
0D0,6.12D0,3D-1,0D0,6.12D0,-1.53D1,0D0,-3D-1,1.53D1,-1.2D-1,         117P     80
6.12D0;                                                              117P     81
508,8,0,101,25,0,0,0,101,26,0,0,0,101,31,0,0,0,101,8,0,0,0,101,      119P     82
2,1,0,0,101,9,1,0,0,101,32,0,0,0,101,27,1,0;                         119P     83
510,117,1,0,119;                                                     121P     84
128,1,1,1,1,0,0,1,0,0,9.916D0,9.916D0,1.4284D1,1.4284D1,-4.8D-1,     123P     85
-4.8D-1,2.448D1,2.448D1,1D0,1D0,1D0,1D0,4D0,-9.916D0,-4.8D-1,        123P     86
4D0,-1.4284D1,-4.8D-1,4D0,-9.916D0,2.448D1,4D0,-1.4284D1,            123P     87
2.448D1,9.916D0,1.4284D1,-4.8D-1,2.448D1;                            123P     88
508,4,0,101,25,1,0,0,101,36,1,0,0,101,28,0,0,0,101,35,1,0;           125P     89
510,123,1,0,125;                                                     127P     90
128,1,1,1,1,0,0,1,0,0,1.979090651974D0,1.979090651974D0,             129P     91
2.693909065197D1,2.693909065197D1,-2.04D0,-2.04D0,4D-2,4D-2,1D0,     129P     92
1D0,1D0,1D0,3.96D0,-1.42D1,-4.8D-1,3.96D0,-1.42D1,2.448D1,           129P     93
6.04D0,-1.42D1,-4.8D-1,6.04D0,-1.42D1,2.448D1,1.979090651974D0,      129P     94
2.693909065197D1,-2.04D0,4D-2;                                       129P     95
508,4,0,101,24,1,0,0,101,30,1,0,0,101,36,0,0,0,101,27,0,0;           131P     96
510,129,1,0,131;                                                     133P     97
128,1,1,1,1,0,0,1,0,0,-3D-1,-3D-1,1.53D1,1.53D1,-4.8D-1,-4.8D-1,     135P     98
2.448D1,2.448D1,1D0,1D0,1D0,1D0,6D0,3D-1,-4.8D-1,6D0,-1.53D1,        135P     99
-4.8D-1,6D0,3D-1,2.448D1,6D0,-1.53D1,2.448D1,-3D-1,1.53D1,           135P    100
-4.8D-1,2.448D1;                                                     135P    101
508,4,0,101,23,1,0,0,101,34,1,0,0,101,5,1,0,0,101,31,1,0;            137P    102
508,4,0,101,13,0,0,0,101,22,0,0,0,101,14,0,0,0,101,21,0,0;           139P    103
510,135,2,0,137,139;                                                 141P    104
128,1,1,1,1,0,0,1,0,0,-3D-1,-3D-1,1.53D1,1.53D1,-4.8D-1,-4.8D-1,     143P    105
2.448D1,2.448D1,1D0,1D0,1D0,1D0,6D0,3D-1,-4.8D-1,6D0,-1.53D1,        143P    106
-4.8D-1,6D0,3D-1,2.448D1,6D0,-1.53D1,2.448D1,-3D-1,1.53D1,           143P    107
-4.8D-1,2.448D1;                                                     143P    108
508,4,0,101,24,0,0,0,101,32,1,0,0,101,6,1,0,0,101,33,1,0;            145P    109
510,143,1,0,145;                                                     147P    110
110,6D0,-7.5D0,8D0,5D0,-7.5D0,8D0;                                   149P    111
110,6.12D0,-9.75D0,8D0,-1.2D-1,-9.75D0,8D0;                          151P    112
120,149,151,-6.283185307180D-2,3.204424506662D0;                     153P    113
508,4,0,101,11,0,0,0,101,18,1,0,0,101,13,1,0,0,101,15,0,0;           155P    114
510,153,1,0,155;                                                     157P    115
128,1,1,1,1,0,0,1,0,0,-8D-2,-8D-2,4.08D0,4.08D0,-6.12D0,-6.12D0,     159P    116
1.2D-1,1.2D-1,1D0,1D0,1D0,1D0,-1.2D-1,-9.75D0,3.92D0,-1.2D-1,        159P    117
-9.75D0,8.08D0,6.12D0,-9.75D0,3.92D0,6.12D0,-9.75D0,8.08D0,          159P    118
-8D-2,4.08D0,-6.12D0,1.2D-1;                                         159P    119
508,4,0,101,17,1,0,0,101,22,1,0,0,101,18,0,0,0,101,20,0,0;           161P    120
510,159,1,0,161;                                                     163P    121
110,6D0,-7.5D0,4D0,5D0,-7.5D0,4D0;                                   165P    122
110,6.12D0,-9.75D0,4D0,-1.2D-1,-9.75D0,4D0;                          167P    123
120,165,167,3.078760800518D0,6.346017160251D0;                       169P    124
508,4,0,101,12,0,0,0,101,16,1,0,0,101,14,1,0,0,101,17,0,0;           171P    125
510,169,1,0,171;                                                     173P    126
128,1,1,1,1,0,0,1,0,0,-8D-2,-8D-2,4.08D0,4.08D0,-6.12D0,-6.12D0,     175P    127
1.2D-1,1.2D-1,1D0,1D0,1D0,1D0,-1.2D-1,-5.25D0,8.08D0,-1.2D-1,        175P    128
-5.25D0,3.92D0,6.12D0,-5.25D0,8.08D0,6.12D0,-5.25D0,3.92D0,          175P    129
-8D-2,4.08D0,-6.12D0,1.2D-1;                                         175P    130
508,4,0,101,15,1,0,0,101,21,1,0,0,101,16,0,0,0,101,19,0,0;           177P    131
510,175,1,0,177;                                                     179P    132
128,1,1,1,1,0,0,1,0,0,7.360014104017D-1,7.360014104017D-1,           181P    133
2.569600141040D1,2.569600141040D1,-2.04D0,-2.04D0,4D-2,4D-2,1D0,     181P    134
1D0,1D0,1D0,3.96D0,-1D1,2.448D1,3.96D0,-1D1,-4.8D-1,6.04D0,-1D1,     181P    135
2.448D1,6.04D0,-1D1,-4.8D-1,7.360014104017D-1,2.569600141040D1,      181P    136
-2.04D0,4D-2;                                                        181P    137
508,4,0,101,23,0,0,0,101,26,1,0,0,101,35,0,0,0,101,29,0,0;           183P    138
510,181,1,0,183;                                                     185P    139
128,1,1,1,1,0,0,1,0,0,-3D-1,-3D-1,1.53D1,1.53D1,-1.2D-1,-1.2D-1,     187P    140
6.12D0,6.12D0,1D0,1D0,1D0,1D0,-1.2D-1,-1.53D1,2.4D1,-1.2D-1,         187P    141
3D-1,2.4D1,6.12D0,-1.53D1,2.4D1,6.12D0,3D-1,2.4D1,-3D-1,1.53D1,      187P    142
-1.2D-1,6.12D0;                                                      187P    143
508,8,0,101,28,1,0,0,101,30,0,0,0,101,33,0,0,0,101,10,0,0,0,101,     189P    144
4,1,0,0,101,7,1,0,0,101,34,0,0,0,101,29,1,0;                         189P    145
510,187,1,0,189;                                                     191P    146
128,1,1,1,1,0,0,1,0,0,-4.8D-1,-4.8D-1,2.448D1,2.448D1,-1.2D-1,       193P    147
-1.2D-1,6.12D0,6.12D0,1D0,1D0,1D0,1D0,-1.2D-1,-1.5D1,-4.8D-1,        193P    148
-1.2D-1,-1.5D1,2.448D1,6.12D0,-1.5D1,-4.8D-1,6.12D0,-1.5D1,          193P    149
2.448D1,-4.8D-1,2.448D1,-1.2D-1,6.12D0;                              193P    150
508,4,0,101,3,1,0,0,101,10,1,0,0,101,6,0,0,0,101,9,0,0;              195P    151
510,193,1,0,195;                                                     197P    152
514,14,109,1,115,0,121,0,127,0,133,1,141,0,147,0,157,0,163,1,        199P    153
173,0,179,1,185,1,191,0,197,0;                                       199P    154
186,199,1,0;                                                         201P    155
S      1G      4D    202P    155                                        T      1
