 PTC IGES file: mice2-04r.igs                                           S      1
1H,,1H;,9HMICE2-04R,13Hmice2-04r.igs,                                   G      1
49HPro/ENGINEER by Parametric Technology Corporation,7H2004110,32,38,7, G      2
38,15,9HMICE2-04R,1.,2,2HMM,32768,0.5,13H080428.080945,0.260362,        G      3
2603.72,10Hliuxiaokun,7HUnknown,10,0,13H080428.080945;                  G      4
     314       1       1       1       0       0       0       001000200D      1
     314       0       4       1       0                   COLOR       1D      2
     314       2       1       1       0       0       0       001000200D      3
     314       0       1       1       0                   COLOR       2D      4
     314       3       1       1       0       0       0       001000200D      5
     314       0       1       1       0                   COLOR       3D      6
     314       4       1       1       0       0       0       001000200D      7
     314       0       1       1       0                   COLOR       4D      8
     314       5       1       1       0       0       0       001000200D      9
     314       0       8       1       0                   COLOR       5D     10
     314       6       1       1       0       0       0       001000200D     11
     314       0       8       1       0                   COLOR       6D     12
     314       7       1       1       0       0       0       001000200D     13
     314       0       8       1       0                   COLOR       7D     14
     314       8       1       1       0       0       0       001000200D     15
     314       0       5       1       0                   COLOR       8D     16
     314       9       1       1       0       0       0       001000200D     17
     314       0       8       1       0                   COLOR       9D     18
     110      10       1       1       0       0       0       001010000D     19
     110       0     -11       2       0                    LINE       1D     20
     124      12       1       1       0       0       0       001000000D     21
     124       0       0       2       0                   XFORM       1D     22
     100      14       1       1       0       0      21       001010000D     23
     100       0     -11       1       0                     ARC       1D     24
     110      15       1       1       0       0       0       001010000D     25
     110       0     -11       2       0                    LINE       2D     26
     110      17       1       1       0       0       0       001010000D     27
     110       0     -11       2       0                    LINE       3D     28
     124      19       1       1       0       0       0       001000000D     29
     124       0       0       2       0                   XFORM       2D     30
     100      21       1       1       0       0      29       001010000D     31
     100       0     -11       1       0                     ARC       2D     32
     110      22       1       1       0       0       0       001010000D     33
     110       0     -11       2       0                    LINE       4D     34
     110      24       1       1       0       0       0       001010000D     35
     110       0     -11       2       0                    LINE       5D     36
     126      26       1       1       0       0       0       001010000D     37
     126       0     -11       9       0                B_SPLINE       1D     38
     110      35       1       1       0       0       0       001010000D     39
     110       0     -11       2       0                    LINE       6D     40
     110      37       1       1       0       0       0       001010000D     41
     110       0     -11       2       0                    LINE       7D     42
     110      39       1       1       0       0       0       001010000D     43
     110       0     -11       2       0                    LINE       8D     44
     126      41       1       1       0       0       0       001010000D     45
     126       0     -11       9       0                B_SPLINE       2D     46
     110      50       1       1       0       0       0       001010000D     47
     110       0     -11       2       0                    LINE       9D     48
     110      52       1       1       0       0       0       001010000D     49
     110       0     -11       2       0                    LINE      10D     50
     124      54       1       1       0       0       0       001000000D     51
     124       0       0       3       0                   XFORM       3D     52
     100      57       1       1       0       0      51       001010000D     53
     100       0     -11       1       0                     ARC       3D     54
     124      58       1       1       0       0       0       001000000D     55
     124       0       0       3       0                   XFORM       4D     56
     100      61       1       1       0       0      55       001010000D     57
     100       0     -11       1       0                     ARC       4D     58
     124      62       1       1       0       0       0       001000000D     59
     124       0       0       2       0                   XFORM       5D     60
     100      64       1       1       0       0      59       001010000D     61
     100       0     -11       1       0                     ARC       5D     62
     110      65       1       1       0       0       0       001010000D     63
     110       0     -11       2       0                    LINE      11D     64
     110      67       1       1       0       0       0       001010000D     65
     110       0     -11       2       0                    LINE      12D     66
     110      69       1       1       0       0       0       001010000D     67
     110       0     -11       2       0                    LINE      13D     68
     110      71       1       1       0       0       0       001010000D     69
     110       0     -11       2       0                    LINE      14D     70
     124      73       1       1       0       0       0       001000000D     71
     124       0       0       2       0                   XFORM       6D     72
     100      75       1       1       0       0      71       001010000D     73
     100       0     -11       1       0                     ARC       6D     74
     502      76       1       1       0       0       0       001010000D     75
     502       0     -11      12       1                  VERTEX       1D     76
     504      88       1       1       0       0       0       000010001D     77
     504       0     -11       5       1                    EDGE       1D     78
     128      93       1       1       0       0       0       001010000D     79
     128       0     -11       8       0                  SPLSRF       1D     80
     508     101       1       1       0       0       0       001010000D     81
     508       0       0       2       1                EDGELOOP       1D     82
     510     103       1       1       0       0       0       000010000D     83
     510       0     -11       1       1                    FACE       1D     84
     128     104       1       1       0       0       0       001010000D     85
     128       0     -11       9       0                  SPLSRF       2D     86
     508     113       1       1       0       0       0       001010000D     87
     508       0       0       1       1                EDGELOOP       2D     88
     510     114       1       1       0       0       0       000010000D     89
     510       0     -11       1       1                    FACE       2D     90
     128     115       1       1       0       0       0       001010000D     91
     128       0     -11       9       0                  SPLSRF       3D     92
     508     124       1       1       0       0       0       001010000D     93
     508       0       0       1       1                EDGELOOP       3D     94
     510     125       1       1       0       0       0       000010000D     95
     510       0     -11       1       1                    FACE       3D     96
     110     126       1       1       0       0       0       001010000D     97
     110       0     -11       1       0                    LINE      15D     98
     110     127       1       1       0       0       0       001010000D     99
     110       0     -11       2       0                    LINE      16D    100
     120     129       1       1       0       0       0       001010000D    101
     120       0     -11       1       0                    SREV       1D    102
     508     130       1       1       0       0       0       001010000D    103
     508       0       0       1       1                EDGELOOP       4D    104
     510     131       1       1       0       0       0       000010000D    105
     510       0     -11       1       1                    FACE       4D    106
     128     132       1       1       0       0       0       001010000D    107
     128       0     -11       9       0                  SPLSRF       4D    108
     508     141       1       1       0       0       0       001010000D    109
     508       0       0       1       1                EDGELOOP       5D    110
     510     142       1       1       0       0       0       000010000D    111
     510       0     -11       1       1                    FACE       5D    112
     128     143       1       1       0       0       0       001010000D    113
     128       0     -11       9       0                  SPLSRF       5D    114
     508     152       1       1       0       0       0       001010000D    115
     508       0       0       1       1                EDGELOOP       6D    116
     510     153       1       1       0       0       0       000010000D    117
     510       0     -11       1       1                    FACE       6D    118
     110     154       1       1       0       0       0       001010000D    119
     110       0     -11       1       0                    LINE      17D    120
     110     155       1       1       0       0       0       001010000D    121
     110       0     -11       2       0                    LINE      18D    122
     120     157       1       1       0       0       0       001010000D    123
     120       0     -11       1       0                    SREV       2D    124
     508     158       1       1       0       0       0       001010000D    125
     508       0       0       1       1                EDGELOOP       7D    126
     510     159       1       1       0       0       0       000010000D    127
     510       0     -11       1       1                    FACE       7D    128
     110     160       1       1       0       0       0       001010000D    129
     110       0     -11       2       0                    LINE      19D    130
     110     162       1       1       0       0       0       001010000D    131
     110       0     -11       2       0                    LINE      20D    132
     120     164       1       1       0       0       0       001010000D    133
     120       0     -11       1       0                    SREV       3D    134
     508     165       1       1       0       0       0       001010000D    135
     508       0       0       1       1                EDGELOOP       8D    136
     510     166       1       1       0       0       0       000010000D    137
     510       0     -11       1       1                    FACE       8D    138
     110     167       1       1       0       0       0       001010000D    139
     110       0     -11       1       0                    LINE      21D    140
     110     168       1       1       0       0       0       001010000D    141
     110       0     -11       2       0                    LINE      22D    142
     120     170       1       1       0       0       0       001010000D    143
     120       0     -11       1       0                    SREV       4D    144
     508     171       1       1       0       0       0       001010000D    145
     508       0       0       1       1                EDGELOOP       9D    146
     510     172       1       1       0       0       0       000010000D    147
     510       0     -11       1       1                    FACE       9D    148
     128     173       1       1       0       0       0       001010000D    149
     128       0     -11       8       0                  SPLSRF       6D    150
     508     181       1       1       0       0       0       001010000D    151
     508       0       0       1       1                EDGELOOP      10D    152
     510     182       1       1       0       0       0       000010000D    153
     510       0     -11       1       1                    FACE      10D    154
     514     183       1       1       0       0       0       000000000D    155
     514       0     -11       1       1                   SHELL       1D    156
     186     184       1       1       0       0       0       000000000D    157
     186       0     -11       1       0                    MSBR       1D    158
314,1.1D0,1.2D0,1D2;                                                   1P      1
314,1.1D1,1.1D1,1.1D1;                                                 3P      2
314,3.92D1,1.2D0,1.2D0;                                                5P      3
314,4.1D1,0D0,2.2D1;                                                   7P      4
314,8.784D1,9.49D1,1D2;                                                9P      5
314,9.01961D1,9.01961D1,1D2;                                          11P      6
314,9.6D1,9.6D1,9.6D1;                                                13P      7
314,9.8D1,6.27D1,0D0;                                                 15P      8
314,1D2,1D2,9.49D1;                                                   17P      9
110,-1.75D2,6.071699389369D2,-6.400168007571D2,-1.75D2,               19P     10
6.302954042253D2,-6.594213701514D2;                                   19P     11
124,0D0,0D0,-1D0,-1.75D2,8.318931442257D-1,-5.549358490766D-1,        21P     12
0D0,0D0,-5.549358490766D-1,-8.318931442257D-1,0D0,0D0;                21P     13
100,0D0,0D0,0D0,9.122D2,0D0,8.902749835562D2,1.987946016720D2;        23P     14
110,-1.75D2,7.588529261627D2,-5.062124815277D2,-1.75D2,               25P     15
7.357274608742D2,-4.868079121333D2;                                   25P     16
110,-1.75D2,7.357274608742D2,-4.868079121333D2,-1.75D2,               27P     17
7.232179257199D2,-4.785307429177D2;                                   27P     18
124,0D0,0D0,-1D0,-1.75D2,8.339690102859D-1,-5.518112810398D-1,        29P     19
0D0,0D0,-5.518112810398D-1,-8.339690102859D-1,0D0,0D0;                29P     20
100,0D0,0D0,0D0,8.672D2,0D0,8.449148707136D2,1.953322841903D2;        31P     21
110,-1.75D2,5.968462605374D2,-6.291346289011D2,-1.75D2,               33P     22
6.071699389369D2,-6.400168007571D2;                                   33P     23
110,-1.75D2,6.071699389369D2,-6.400168007571D2,-1.65D2,               35P     24
6.071699389369D2,-6.400168007571D2;                                   35P     25
126,5,3,0,0,1,0,0D0,0D0,0D0,0D0,3.333333333333D-1,                    37P     26
6.666666666667D-1,1D0,1D0,1D0,1D0,1D0,1D0,1D0,1D0,1D0,1D0,            37P     27
-8.011339873617D1,6.302954042253D2,-6.594213701514D2,                 37P     28
-8.134736228039D1,6.276618585616D2,-6.572115629563D2,                 37P     29
-8.379510465548D1,6.224374856994D2,-6.528277936145D2,                 37P     30
-8.740543354612D1,6.147306583235D2,-6.463609976059D2,                 37P     31
-8.977294309529D1,6.096761135332D2,-6.421197309366D2,                 37P     32
-9.094673206950D1,6.071699389369D2,-6.400168007571D2,0D0,1D0,         37P     33
0D0,0D0,1D0;                                                          37P     34
110,-1.75D2,5.968462605374D2,-6.291346289011D2,-1.65D2,               39P     35
5.968462605374D2,-6.291346289011D2;                                   39P     36
110,-1.75D2,7.232179257199D2,-4.785307429177D2,-1.65D2,               41P     37
7.232179257199D2,-4.785307429177D2;                                   41P     38
110,-1.75D2,7.357274608742D2,-4.868079121333D2,-1.65D2,               43P     39
7.357274608742D2,-4.868079121333D2;                                   43P     40
126,5,3,0,0,1,0,0D0,0D0,0D0,0D0,3.333333333333D-1,                    45P     41
6.666666666667D-1,1D0,1D0,1D0,1D0,1D0,1D0,1D0,1D0,1D0,1D0,            45P     42
-9.094673206950D1,7.357274608742D2,-4.868079121333D2,                 45P     43
-8.977298732349D1,7.382335410382D2,-4.889107630747D2,                 45P     44
-8.740553810097D1,7.432879570428D2,-4.931519216799D2,                 45P     45
-8.379532451167D1,7.509945383520D2,-4.996185112141D2,                 45P     46
-8.134745709377D1,7.562191781466D2,-5.040025045388D2,                 45P     47
-8.011339873617D1,7.588529261627D2,-5.062124815277D2,0D0,1D0,         45P     48
0D0,0D0,1D0;                                                          45P     49
110,-1.75D2,7.588529261627D2,-5.062124815277D2,                       47P     50
-8.011339873617D1,7.588529261627D2,-5.062124815277D2;                 47P     51
110,-1.75D2,6.302954042253D2,-6.594213701514D2,                       49P     52
-8.011339873617D1,6.302954042253D2,-6.594213701514D2;                 49P     53
124,0D0,0D0,1D0,-8.011339873617D1,6.909618551034D-1,                  51P     54
7.228912191969D-1,0D0,0D0,-7.228912191969D-1,6.909618551034D-1,       51P     55
0D0,5.585429579784D-14;                                               51P     56
100,0D0,0D0,0D0,9.122D2,0D0,8.902749835562D2,1.987946016720D2;        53P     57
124,0D0,0D0,-1D0,-9.094673206950D1,8.339690102859D-1,                 55P     58
-5.518112810398D-1,0D0,0D0,-5.518112810398D-1,                        55P     59
-8.339690102859D-1,0D0,5.585429579784D-14;                            55P     60
100,0D0,0D0,0D0,8.822D2,0D0,8.595294037633D2,1.987109560801D2;        57P     61
124,0D0,0D0,-1D0,-1.65D2,8.339690102859D-1,-5.518112810398D-1,        59P     62
0D0,0D0,-5.518112810398D-1,-8.339690102859D-1,0D0,0D0;                59P     63
100,0D0,0D0,0D0,8.822D2,0D0,8.595294037633D2,1.987109560801D2;        61P     64
110,-1.65D2,7.357274608742D2,-4.868079121333D2,                       63P     65
-9.094673206950D1,7.357274608742D2,-4.868079121333D2;                 63P     66
110,-1.65D2,6.071699389369D2,-6.400168007571D2,                       65P     67
-9.094673206950D1,6.071699389369D2,-6.400168007571D2;                 65P     68
110,-1.65D2,7.357274608742D2,-4.868079121333D2,-1.65D2,               67P     69
7.232179257199D2,-4.785307429177D2;                                   67P     70
110,-1.65D2,5.968462605374D2,-6.291346289011D2,-1.65D2,               69P     71
6.071699389369D2,-6.400168007571D2;                                   69P     72
124,0D0,0D0,-1D0,-1.65D2,8.339690102859D-1,-5.518112810398D-1,        71P     73
0D0,0D0,-5.518112810398D-1,-8.339690102859D-1,0D0,0D0;                71P     74
100,0D0,0D0,0D0,8.672D2,0D0,8.449148707136D2,1.953322841903D2;        73P     75
502,14,-1.75D2,7.588529261627D2,-5.062124815277D2,-1.75D2,            75P     76
6.302954042253D2,-6.594213701514D2,-9.094673206950D1,                 75P     77
7.357274608742D2,-4.868079121333D2,-8.011339873617D1,                 75P     78
7.588529261627D2,-5.062124815277D2,-8.011339873617D1,                 75P     79
6.302954042253D2,-6.594213701514D2,-9.094673206950D1,                 75P     80
6.071699389369D2,-6.400168007571D2,-1.75D2,7.232179257199D2,          75P     81
-4.785307429177D2,-1.75D2,5.968462605374D2,-6.291346289011D2,         75P     82
-1.65D2,7.232179257199D2,-4.785307429177D2,-1.65D2,                   75P     83
5.968462605374D2,-6.291346289011D2,-1.75D2,7.357274608742D2,          75P     84
-4.868079121333D2,-1.65D2,7.357274608742D2,-4.868079121333D2,         75P     85
-1.75D2,6.071699389369D2,-6.400168007571D2,-1.65D2,                   75P     86
6.071699389369D2,-6.400168007571D2;                                   75P     87
504,22,23,75,1,75,2,45,75,3,75,4,37,75,5,75,6,57,75,3,75,6,47,        77P     88
75,1,75,4,49,75,2,75,5,53,75,5,75,4,31,75,7,75,8,73,75,9,75,10,       77P     89
41,75,7,75,9,39,75,8,75,10,43,75,11,75,12,35,75,13,75,14,25,75,       77P     90
1,75,11,19,75,13,75,2,27,75,11,75,7,33,75,8,75,13,67,75,12,75,9,      77P     91
69,75,10,75,14,61,75,12,75,14,63,75,12,75,3,65,75,14,75,6;            77P     92
128,1,1,1,1,0,0,1,0,0,-7.620930594752D2,-7.620930594752D2,            79P     93
-5.936061272249D2,-5.936061272249D2,-6.630391826961D2,                79P     94
-6.630391826961D2,-4.749129303730D2,-4.749129303730D2,1D0,1D0,        79P     95
1D0,1D0,-1.75D2,7.620930594752D2,-6.630391826961D2,-1.75D2,           79P     96
5.936061272249D2,-6.630391826961D2,-1.75D2,7.620930594752D2,          79P     97
-4.749129303730D2,-1.75D2,5.936061272249D2,-4.749129303730D2,         79P     98
-7.620930594752D2,-5.936061272249D2,-6.630391826961D2,                79P     99
-4.749129303730D2;                                                    79P    100
508,6,0,77,15,1,0,0,77,1,0,0,0,77,14,1,0,0,77,16,1,0,0,77,8,1,0,      81P    101
0,77,17,1,0;                                                          81P    102
510,79,1,0,81;                                                        83P    103
128,1,1,1,1,0,0,1,0,0,2.457428973370D2,2.457428973370D2,              85P    104
2.821799822306D2,2.821799822306D2,1.561720330316D2,                   85P    105
1.561720330316D2,2.573075682323D2,2.573075682323D2,1D0,1D0,1D0,       85P    106
1D0,-1.781244669684D2,6.047764583780D2,-6.380084321029D2,             85P    107
-1.781244669684D2,6.326888847842D2,-6.614297388056D2,                 85P    108
-7.698893176774D1,6.047764583780D2,-6.380084321029D2,                 85P    109
-7.698893176774D1,6.326888847842D2,-6.614297388056D2,                 85P    110
2.457428973370D2,2.821799822306D2,1.561720330316D2,                   85P    111
2.573075682323D2;                                                     85P    112
508,5,0,77,13,1,0,0,77,22,1,0,0,77,3,0,0,0,77,6,0,0,0,77,15,0,0;      87P    113
510,85,1,0,87;                                                        89P    114
128,1,1,1,1,0,0,1,0,0,-3.124466968428D0,-3.124466968428D0,            91P    115
1.812446696843D1,1.812446696843D1,-1.312446696843D1,                  91P    116
-1.312446696843D1,3.124466968428D0,3.124466968428D0,1D0,1D0,1D0,      91P    117
1D0,-1.618755330316D2,5.946958610606D2,-6.268678964672D2,             91P    118
-1.618755330316D2,6.093203384137D2,-6.422835331910D2,                 91P    119
-1.781244669684D2,5.946958610606D2,-6.268678964672D2,                 91P    120
-1.781244669684D2,6.093203384137D2,-6.422835331910D2,                 91P    121
-3.124466968428D0,1.812446696843D1,-1.312446696843D1,                 91P    122
3.124466968428D0;                                                     91P    123
508,4,0,77,13,0,0,0,77,17,0,0,0,77,11,1,0,0,77,19,1,0;                93P    124
510,91,1,0,93;                                                        95P    125
110,-1.75D2,0D0,0D0,-1.74D2,0D0,0D0;                                  97P    126
110,-1.781244669684D2,-8.672D2,0D0,-1.618755330316D2,-8.672D2,        99P    127
0D0;                                                                  99P    128
120,97,99,2.325319928185D0,2.561601977399D0;                         101P    129
508,4,0,77,8,0,0,0,77,10,1,0,0,77,9,1,0,0,77,11,0,0;                 103P    130
510,101,1,0,103;                                                     105P    131
128,1,1,1,1,0,0,1,0,0,-3.124466968429D0,-3.124466968429D0,           107P    132
1.812446696843D1,1.812446696843D1,-1.312446696843D1,                 107P    133
-1.312446696843D1,3.124466968428D0,3.124466968428D0,1D0,1D0,1D0,     107P    134
1D0,-1.618755330316D2,7.383331694995D2,-4.885320282537D2,            107P    135
-1.618755330316D2,7.206122170946D2,-4.768066267973D2,                107P    136
-1.781244669684D2,7.383331694995D2,-4.885320282537D2,                107P    137
-1.781244669684D2,7.206122170946D2,-4.768066267973D2,                107P    138
-3.124466968429D0,1.812446696843D1,-1.312446696843D1,                107P    139
3.124466968428D0;                                                    107P    140
508,4,0,77,12,1,0,0,77,18,1,0,0,77,10,0,0,0,77,16,0,0;               109P    141
510,107,1,0,109;                                                     111P    142
128,1,1,1,1,0,0,1,0,0,8.722262928042D1,8.722262928042D1,             113P    143
1.236597141740D2,1.236597141740D2,1.561720330316D2,                  113P    144
1.561720330316D2,2.573075682323D2,2.573075682323D2,1D0,1D0,1D0,      113P    145
1D0,-1.781244669684D2,7.612464067215D2,-5.082208501818D2,            113P    146
-1.781244669684D2,7.333339803153D2,-4.847995434791D2,                113P    147
-7.698893176774D1,7.612464067215D2,-5.082208501818D2,                113P    148
-7.698893176774D1,7.333339803153D2,-4.847995434791D2,                113P    149
8.722262928042D1,1.236597141740D2,1.561720330316D2,                  113P    150
2.573075682323D2;                                                    113P    151
508,5,0,77,12,0,0,0,77,14,0,0,0,77,5,1,0,0,77,2,0,0,0,77,21,0,0;     115P    152
510,113,1,0,115;                                                     117P    153
110,-1.75D2,0D0,0D0,-1.76D2,0D0,0D0;                                 119P    154
110,-7.698893176774D1,-9.122D2,0D0,-1.781244669684D2,-9.122D2,       121P    155
0D0;                                                                 121P    156
120,119,121,3.725484669323D0,3.953964039452D0;                       123P    157
508,4,0,77,7,1,0,0,77,5,0,0,0,77,1,1,0,0,77,6,1,0;                   125P    158
510,123,1,0,125;                                                     127P    159
110,-4.095189542917D2,0D0,5.585429579784D-14,-4.105189542917D2,      129P    160
0D0,5.585429579784D-14;                                              129P    161
110,-7.905219082809D1,-7.010369384866D2,5.882398365258D2,            131P    162
-9.200793997758D1,-6.735532102461D2,5.651782502958D2;                131P    163
120,129,131,-3.259733678197D0,-3.023451628983D0;                     133P    164
508,4,0,77,7,0,0,0,77,3,1,0,0,77,4,0,0,0,77,2,1,0;                   135P    165
510,133,1,0,135;                                                     137P    166
110,-1.75D2,0D0,0D0,-1.76D2,0D0,0D0;                                 139P    167
110,-8.782226510107D1,-8.822D2,0D0,-1.681244669684D2,-8.822D2,       141P    168
0D0;                                                                 141P    169
120,139,141,3.721583329780D0,3.957865378995D0;                       143P    170
508,4,0,77,20,0,0,0,77,21,1,0,0,77,4,1,0,0,77,22,0,0;                145P    171
510,143,1,0,145;                                                     147P    172
128,1,1,1,1,0,0,1,0,0,-7.388519278426D2,-7.388519278426D2,           149P    173
-5.937217935690D2,-5.937217935690D2,4.753010217609D2,                149P    174
4.753010217609D2,6.432465219139D2,6.432465219139D2,1D0,1D0,1D0,      149P    175
1D0,-1.65D2,7.388519278426D2,-4.753010217609D2,-1.65D2,              149P    176
5.937217935690D2,-4.753010217609D2,-1.65D2,7.388519278426D2,         149P    177
-6.432465219139D2,-1.65D2,5.937217935690D2,-6.432465219139D2,        149P    178
-7.388519278426D2,-5.937217935690D2,4.753010217609D2,                149P    179
6.432465219139D2;                                                    149P    180
508,4,0,77,18,0,0,0,77,20,1,0,0,77,19,0,0,0,77,9,0,0;                151P    181
510,149,1,0,151;                                                     153P    182
514,10,83,1,89,1,95,0,105,0,111,0,117,1,127,1,137,0,147,0,153,1;     155P    183
186,155,1,0;                                                         157P    184
S      1G      4D    158P    184                                        T      1
