 PTC IGES file: mice10-001_a.igs                                        S      1
1H,,1H;,12HMICE10-001_A,16Hmice10-001_a.igs,                            G      1
49HPro/ENGINEER by Parametric Technology Corporation,7H2004110,32,38,7, G      2
38,15,12HMICE10-001_A,1.,2,2HMM,32768,0.5,13H080428.080957,0.0378209,   G      3
378.224,10Hliuxiaokun,7HUnknown,10,0,13H080428.080957;                  G      4
     314       1       1       1       0       0       0       001000200D      1
     314       0       4       1       0                   COLOR       1D      2
     314       2       1       1       0       0       0       001000200D      3
     314       0       1       1       0                   COLOR       2D      4
     314       3       1       1       0       0       0       001000200D      5
     314       0       1       1       0                   COLOR       3D      6
     314       4       1       1       0       0       0       001000200D      7
     314       0       1       1       0                   COLOR       4D      8
     314       5       1       1       0       0       0       001000200D      9
     314       0       7       1       0                   COLOR       5D     10
     314       6       1       1       0       0       0       001000200D     11
     314       0       8       1       0                   COLOR       6D     12
     314       7       1       1       0       0       0       001000200D     13
     314       0       8       1       0                   COLOR       7D     14
     314       8       1       1       0       0       0       001000200D     15
     314       0       8       1       0                   COLOR       8D     16
     314       9       1       1       0       0       0       001000200D     17
     314       0       5       1       0                   COLOR       9D     18
     314      10       1       1       0       0       0       001000200D     19
     314       0       5       1       0                   COLOR      10D     20
     314      11       1       1       0       0       0       001000200D     21
     314       0       8       1       0                   COLOR      11D     22
     314      12       1       1       0       0       0       001000200D     23
     314       0       8       1       0                   COLOR      12D     24
     124      13       1       1       0       0       0       001000000D     25
     124       0       0       2       0                   XFORM       1D     26
     100      15       1       1       0       0      25       001010000D     27
     100       0     -19       1       0                     ARC       1D     28
     124      16       1       1       0       0       0       001000000D     29
     124       0       0       2       0                   XFORM       2D     30
     100      18       1       1       0       0      29       001010000D     31
     100       0     -19       1       0                     ARC       2D     32
     110      19       1       1       0       0       0       001010000D     33
     110       0     -19       1       0                    LINE       1D     34
     110      20       1       1       0       0       0       001010000D     35
     110       0     -19       1       0                    LINE       2D     36
     124      21       1       1       0       0       0       001000000D     37
     124       0       0       2       0                   XFORM       3D     38
     100      23       1       1       0       0      37       001010000D     39
     100       0     -19       1       0                     ARC       3D     40
     124      24       1       1       0       0       0       001000000D     41
     124       0       0       2       0                   XFORM       4D     42
     100      26       1       1       0       0      41       001010000D     43
     100       0     -19       1       0                     ARC       4D     44
     502      27       1       1       0       0       0       001010000D     45
     502       0     -19       2       1                  VERTEX       1D     46
     504      29       1       1       0       0       0       001010001D     47
     504       0     -19       2       1                    EDGE       1D     48
     110      31       1       1       0       0       0       001010000D     49
     110       0     -19       1       0                    LINE       3D     50
     110      32       1       1       0       0       0       001010000D     51
     110       0     -19       1       0                    LINE       4D     52
     120      33       1       1       0       0       0       001010000D     53
     120       0     -19       1       0                    SREV       1D     54
     508      34       1       1       0       0       0       001010000D     55
     508       0       0       1       1                EDGELOOP       1D     56
     510      35       1       1       0       0       0       001010000D     57
     510       0     -19       1       1                    FACE       1D     58
     128      36       1       1       0       0       0       001010000D     59
     128       0     -19       8       0                  SPLSRF       1D     60
     508      44       1       1       0       0       0       001010000D     61
     508       0       0       1       1                EDGELOOP       2D     62
     510      45       1       1       0       0       0       001010000D     63
     510       0     -19       1       1                    FACE       2D     64
     110      46       1       1       0       0       0       001010000D     65
     110       0     -19       1       0                    LINE       5D     66
     110      47       1       1       0       0       0       001010000D     67
     110       0     -19       1       0                    LINE       6D     68
     120      48       1       1       0       0       0       001010000D     69
     120       0     -19       1       0                    SREV       2D     70
     508      49       1       1       0       0       0       001010000D     71
     508       0       0       1       1                EDGELOOP       3D     72
     510      50       1       1       0       0       0       001010000D     73
     510       0     -19       1       1                    FACE       3D     74
     128      51       1       1       0       0       0       001010000D     75
     128       0     -19       8       0                  SPLSRF       2D     76
     508      59       1       1       0       0       0       001010000D     77
     508       0       0       1       1                EDGELOOP       4D     78
     510      60       1       1       0       0       0       001010000D     79
     510       0     -19       1       1                    FACE       4D     80
     514      61       1       1       0       0       0       001000000D     81
     514       0     -19       1       1                   SHELL       1D     82
     186      62       1       1       0       0       0       000000000D     83
     186       0     -19       1       0                    MSBR       1D     84
     124      63       1       1       0       0       0       001000000D     85
     124       0       0       2       0                   XFORM       5D     86
     100      65       1       1       0       0      85       001010000D     87
     100       0     -19       1       0                     ARC       5D     88
     124      66       1       1       0       0       0       001000000D     89
     124       0       0       2       0                   XFORM       6D     90
     100      68       1       1       0       0      89       001010000D     91
     100       0     -19       1       0                     ARC       6D     92
     110      69       1       1       0       0       0       001010000D     93
     110       0     -19       1       0                    LINE       7D     94
     110      70       1       1       0       0       0       001010000D     95
     110       0     -19       1       0                    LINE       8D     96
     124      71       1       1       0       0       0       001000000D     97
     124       0       0       2       0                   XFORM       7D     98
     100      73       1       1       0       0      97       001010000D     99
     100       0     -19       1       0                     ARC       7D    100
     124      74       1       1       0       0       0       001000000D    101
     124       0       0       2       0                   XFORM       8D    102
     100      76       1       1       0       0     101       001010000D    103
     100       0     -19       1       0                     ARC       8D    104
     502      77       1       1       0       0       0       001010000D    105
     502       0     -19       2       1                  VERTEX       2D    106
     504      79       1       1       0       0       0       001010001D    107
     504       0     -19       2       1                    EDGE       2D    108
     110      81       1       1       0       0       0       001010000D    109
     110       0     -19       1       0                    LINE       9D    110
     110      82       1       1       0       0       0       001010000D    111
     110       0     -19       1       0                    LINE      10D    112
     120      83       1       1       0       0       0       001010000D    113
     120       0     -19       1       0                    SREV       3D    114
     508      84       1       1       0       0       0       001010000D    115
     508       0       0       1       1                EDGELOOP       5D    116
     510      85       1       1       0       0       0       001010000D    117
     510       0     -19       1       1                    FACE       5D    118
     128      86       1       1       0       0       0       001010000D    119
     128       0     -19       8       0                  SPLSRF       3D    120
     508      94       1       1       0       0       0       001010000D    121
     508       0       0       1       1                EDGELOOP       6D    122
     510      95       1       1       0       0       0       001010000D    123
     510       0     -19       1       1                    FACE       6D    124
     110      96       1       1       0       0       0       001010000D    125
     110       0     -19       1       0                    LINE      11D    126
     110      97       1       1       0       0       0       001010000D    127
     110       0     -19       1       0                    LINE      12D    128
     120      98       1       1       0       0       0       001010000D    129
     120       0     -19       1       0                    SREV       4D    130
     508      99       1       1       0       0       0       001010000D    131
     508       0       0       1       1                EDGELOOP       7D    132
     510     100       1       1       0       0       0       001010000D    133
     510       0     -19       1       1                    FACE       7D    134
     128     101       1       1       0       0       0       001010000D    135
     128       0     -19       8       0                  SPLSRF       4D    136
     508     109       1       1       0       0       0       001010000D    137
     508       0       0       1       1                EDGELOOP       8D    138
     510     110       1       1       0       0       0       001010000D    139
     510       0     -19       1       1                    FACE       8D    140
     514     111       1       1       0       0       0       001000000D    141
     514       0     -19       1       1                   SHELL       2D    142
     186     112       1       1       0       0       0       000000000D    143
     186       0     -19       1       0                    MSBR       2D    144
314,1.1D0,1.2D0,1D2;                                                   1P      1
314,1.1D1,1.1D1,1.1D1;                                                 3P      2
314,3.92D1,1.2D0,1.2D0;                                                5P      3
314,4.1D1,0D0,2.2D1;                                                   7P      4
314,4.33D1,1D2,7.16D1;                                                 9P      5
314,7.9D1,1D2,7.2D1;                                                  11P      6
314,8.784D1,9.49D1,1D2;                                               13P      7
314,9.6D1,9.6D1,9.6D1;                                                15P      8
314,9.8D1,6.27D1,0D0;                                                 17P      9
314,1D2,6.62356D1,2.35923D1;                                          19P     10
314,1D2,9D1,8.1D1;                                                    21P     11
314,1D2,1D2,9.49D1;                                                   23P     12
124,1D0,0D0,0D0,-1.6159D2,0D0,0D0,-1D0,1.458D3,0D0,1D0,0D0,           25P     13
-3.5D1;                                                               25P     14
100,0D0,0D0,0D0,4D0,0D0,-4D0,0D0;                                     27P     15
124,-1D0,0D0,0D0,-1.6159D2,0D0,0D0,-1D0,1.458D3,0D0,-1D0,0D0,         29P     16
-3.5D1;                                                               29P     17
100,0D0,0D0,0D0,4D0,0D0,-4D0,0D0;                                     31P     18
110,-1.5759D2,1.458D3,-3.5D1,-1.5759D2,1.699D3,-3.5D1;                33P     19
110,-1.6559D2,1.699D3,-3.5D1,-1.6559D2,1.458D3,-3.5D1;                35P     20
124,-1D0,0D0,0D0,-1.6159D2,0D0,0D0,1D0,1.699D3,0D0,1D0,0D0,           37P     21
-3.5D1;                                                               37P     22
100,0D0,0D0,0D0,4D0,0D0,-4D0,0D0;                                     39P     23
124,1D0,0D0,0D0,-1.6159D2,0D0,0D0,1D0,1.699D3,0D0,-1D0,0D0,           41P     24
-3.5D1;                                                               41P     25
100,0D0,0D0,0D0,4D0,0D0,-4D0,0D0;                                     43P     26
502,4,-1.6559D2,1.699D3,-3.5D1,-1.5759D2,1.699D3,-3.5D1,              45P     27
-1.5759D2,1.458D3,-3.5D1,-1.6559D2,1.458D3,-3.5D1;                    45P     28
504,6,39,45,1,45,2,43,45,2,45,1,27,45,3,45,4,31,45,4,45,3,33,45,      47P     29
3,45,2,35,45,1,45,4;                                                  47P     30
110,-1.6159D2,1.649D3,-3.5D1,-1.6159D2,1.648D3,-3.5D1;                49P     31
110,-1.5759D2,1.70382D3,-3.5D1,-1.5759D2,1.45318D3,-3.5D1;            51P     32
120,49,51,-1.134670953164D-1,3.255059748906D0;                        53P     33
508,4,0,47,3,1,0,0,47,6,0,0,0,47,1,1,0,0,47,5,0,0;                    55P     34
510,53,1,0,55;                                                        57P     35
128,1,1,1,1,0,0,1,0,0,7.116036307893D1,7.116036307893D1,              59P     36
8.006809984146D1,8.006809984146D1,-1.660438683813D2,                  59P     37
-1.660438683813D2,-1.571361316187D2,-1.571361316187D2,1D0,1D0,        59P     38
1D0,1D0,-1.660438683813D2,1.458D3,-3.945386838127D1,                  59P     39
-1.660438683813D2,1.458D3,-3.054613161873D1,-1.571361316187D2,        59P     40
1.458D3,-3.945386838127D1,-1.571361316187D2,1.458D3,                  59P     41
-3.054613161873D1,7.116036307893D1,8.006809984146D1,                  59P     42
-1.660438683813D2,-1.571361316187D2;                                  59P     43
508,2,0,47,3,0,0,0,47,4,0,0;                                          61P     44
510,59,1,0,61;                                                        63P     45
110,-1.6159D2,1.649D3,-3.5D1,-1.6159D2,1.648D3,-3.5D1;                65P     46
110,-1.5759D2,1.70382D3,-3.5D1,-1.5759D2,1.45318D3,-3.5D1;            67P     47
120,65,67,3.028125558273D0,6.396652402496D0;                          69P     48
508,4,0,47,4,1,0,0,47,5,1,0,0,47,2,1,0,0,47,6,1,0;                    71P     49
510,69,1,0,71;                                                        73P     50
128,1,1,1,1,0,0,1,0,0,1.571361316187D2,1.571361316187D2,              75P     51
1.660438683813D2,1.660438683813D2,-3.947030792031D1,                  75P     52
-3.947030792031D1,-3.052969207969D1,-3.052969207969D1,1D0,1D0,        75P     53
1D0,1D0,-1.571361316187D2,1.699D3,-3.947030792031D1,                  75P     54
-1.660438683813D2,1.699D3,-3.947030792031D1,-1.571361316187D2,        75P     55
1.699D3,-3.052969207969D1,-1.660438683813D2,1.699D3,                  75P     56
-3.052969207969D1,1.571361316187D2,1.660438683813D2,                  75P     57
-3.947030792031D1,-3.052969207969D1;                                  75P     58
508,2,0,47,1,0,0,0,47,2,0,0;                                          77P     59
510,75,1,0,77;                                                        79P     60
514,4,57,1,63,0,73,1,79,1;                                            81P     61
186,81,1,0;                                                           83P     62
124,1D0,0D0,0D0,-1.6159D2,0D0,0D0,-1D0,1.458D3,0D0,1D0,0D0,           85P     63
3.5D1;                                                                85P     64
100,0D0,0D0,0D0,4D0,0D0,-4D0,0D0;                                     87P     65
124,-1D0,0D0,0D0,-1.6159D2,0D0,0D0,-1D0,1.458D3,0D0,-1D0,0D0,         89P     66
3.5D1;                                                                89P     67
100,0D0,0D0,0D0,4D0,0D0,-4D0,0D0;                                     91P     68
110,-1.5759D2,1.458D3,3.5D1,-1.5759D2,1.699D3,3.5D1;                  93P     69
110,-1.6559D2,1.699D3,3.5D1,-1.6559D2,1.458D3,3.5D1;                  95P     70
124,-1D0,0D0,0D0,-1.6159D2,0D0,0D0,1D0,1.699D3,0D0,1D0,0D0,           97P     71
3.5D1;                                                                97P     72
100,0D0,0D0,0D0,4D0,0D0,-4D0,0D0;                                     99P     73
124,1D0,0D0,0D0,-1.6159D2,0D0,0D0,1D0,1.699D3,0D0,-1D0,0D0,          101P     74
3.5D1;                                                               101P     75
100,0D0,0D0,0D0,4D0,0D0,-4D0,0D0;                                    103P     76
502,4,-1.6559D2,1.699D3,3.5D1,-1.5759D2,1.699D3,3.5D1,-1.5759D2,     105P     77
1.458D3,3.5D1,-1.6559D2,1.458D3,3.5D1;                               105P     78
504,6,99,105,1,105,2,103,105,2,105,1,87,105,3,105,4,91,105,4,        107P     79
105,3,93,105,3,105,2,95,105,1,105,4;                                 107P     80
110,-1.6159D2,1.649D3,3.5D1,-1.6159D2,1.648D3,3.5D1;                 109P     81
110,-1.5759D2,1.70382D3,3.5D1,-1.5759D2,1.45318D3,3.5D1;             111P     82
120,109,111,-1.134670953164D-1,3.255059748906D0;                     113P     83
508,4,0,107,3,1,0,0,107,6,0,0,0,107,1,1,0,0,107,5,0,0;               115P     84
510,113,1,0,115;                                                     117P     85
128,1,1,1,1,0,0,1,0,0,1.411603630789D2,1.411603630789D2,             119P     86
1.500680998415D2,1.500680998415D2,-1.660438683813D2,                 119P     87
-1.660438683813D2,-1.571361316187D2,-1.571361316187D2,1D0,1D0,       119P     88
1D0,1D0,-1.660438683813D2,1.458D3,3.054613161873D1,                  119P     89
-1.660438683813D2,1.458D3,3.945386838127D1,-1.571361316187D2,        119P     90
1.458D3,3.054613161873D1,-1.571361316187D2,1.458D3,                  119P     91
3.945386838127D1,1.411603630789D2,1.500680998415D2,                  119P     92
-1.660438683813D2,-1.571361316187D2;                                 119P     93
508,2,0,107,3,0,0,0,107,4,0,0;                                       121P     94
510,119,1,0,121;                                                     123P     95
110,-1.6159D2,1.649D3,3.5D1,-1.6159D2,1.648D3,3.5D1;                 125P     96
110,-1.5759D2,1.70382D3,3.5D1,-1.5759D2,1.45318D3,3.5D1;             127P     97
120,125,127,3.028125558273D0,6.396652402496D0;                       129P     98
508,4,0,107,4,1,0,0,107,5,1,0,0,107,2,1,0,0,107,6,1,0;               131P     99
510,129,1,0,131;                                                     133P    100
128,1,1,1,1,0,0,1,0,0,1.571361316187D2,1.571361316187D2,             135P    101
1.660438683813D2,1.660438683813D2,3.052969207969D1,                  135P    102
3.052969207969D1,3.947030792031D1,3.947030792031D1,1D0,1D0,1D0,      135P    103
1D0,-1.571361316187D2,1.699D3,3.052969207969D1,                      135P    104
-1.660438683813D2,1.699D3,3.052969207969D1,-1.571361316187D2,        135P    105
1.699D3,3.947030792031D1,-1.660438683813D2,1.699D3,                  135P    106
3.947030792031D1,1.571361316187D2,1.660438683813D2,                  135P    107
3.052969207969D1,3.947030792031D1;                                   135P    108
508,2,0,107,1,0,0,0,107,2,0,0;                                       137P    109
510,135,1,0,137;                                                     139P    110
514,4,117,1,123,0,133,1,139,1;                                       141P    111
186,141,1,0;                                                         143P    112
S      1G      4D    144P    112                                        T      1
