 PTC IGES file: mice1-4-003.igs                                         S      1
1H,,1H;,11HMICE1-4-003,15Hmice1-4-003.igs,                              G      1
49HPro/ENGINEER by Parametric Technology Corporation,7H2004110,32,38,7, G      2
38,15,11HMICE1-4-003,1.,2,2HMM,32768,0.5,13H080428.080941,0.124308,     G      3
1243.13,10Hliuxiaokun,7HUnknown,10,0,13H080428.080941;                  G      4
     314       1       1       1       0       0       0       001000200D      1
     314       0       4       1       0                   COLOR       1D      2
     314       2       1       1       0       0       0       001000200D      3
     314       0       1       1       0                   COLOR       2D      4
     314       3       1       1       0       0       0       001000200D      5
     314       0       1       1       0                   COLOR       3D      6
     314       4       1       1       0       0       0       001000200D      7
     314       0       1       1       0                   COLOR       4D      8
     314       5       1       1       0       0       0       001000200D      9
     314       0       8       1       0                   COLOR       5D     10
     314       6       1       1       0       0       0       001000200D     11
     314       0       8       1       0                   COLOR       6D     12
     314       7       1       1       0       0       0       001000200D     13
     314       0       5       1       0                   COLOR       7D     14
     314       8       1       1       0       0       0       001000200D     15
     314       0       8       1       0                   COLOR       8D     16
     110       9       1       1       0       0       0       001010000D     17
     110       0      -9       1       0                    LINE       1D     18
     110      10       1       1       0       0       0       001010000D     19
     110       0      -9       1       0                    LINE       2D     20
     110      11       1       1       0       0       0       001010000D     21
     110       0      -9       1       0                    LINE       3D     22
     110      12       1       1       0       0       0       001010000D     23
     110       0      -9       1       0                    LINE       4D     24
     110      13       1       1       0       0       0       001010000D     25
     110       0      -9       1       0                    LINE       5D     26
     110      14       1       1       0       0       0       001010000D     27
     110       0      -9       2       0                    LINE       6D     28
     110      16       1       1       0       0       0       001010000D     29
     110       0      -9       1       0                    LINE       7D     30
     110      17       1       1       0       0       0       001010000D     31
     110       0      -9       2       0                    LINE       8D     32
     110      19       1       1       0       0       0       001010000D     33
     110       0      -9       1       0                    LINE       9D     34
     110      20       1       1       0       0       0       001010000D     35
     110       0      -9       1       0                    LINE      10D     36
     124      21       1       1       0       0       0       001000000D     37
     124       0       0       2       0                   XFORM       1D     38
     100      23       1       1       0       0      37       001010000D     39
     100       0      -9       1       0                     ARC       1D     40
     124      24       1       1       0       0       0       001000000D     41
     124       0       0       2       0                   XFORM       2D     42
     100      26       1       1       0       0      41       001010000D     43
     100       0      -9       1       0                     ARC       2D     44
     502      27       1       1       0       0       0       001010000D     45
     502       0      -9       4       1                  VERTEX       1D     46
     504      31       1       1       0       0       0       000010001D     47
     504       0      -9       3       1                    EDGE       1D     48
     128      34       1       1       0       0       0       001010000D     49
     128       0      -9       6       0                  SPLSRF       1D     50
     508      40       1       1       0       0       0       001010000D     51
     508       0       0       1       1                EDGELOOP       1D     52
     510      41       1       1       0       0       0       000010000D     53
     510       0      -9       1       1                    FACE       1D     54
     128      42       1       1       0       0       0       001010000D     55
     128       0      -9       8       0                  SPLSRF       2D     56
     508      50       1       1       0       0       0       001010000D     57
     508       0       0       1       1                EDGELOOP       2D     58
     510      51       1       1       0       0       0       000010000D     59
     510       0      -9       1       1                    FACE       2D     60
     128      52       1       1       0       0       0       001010000D     61
     128       0      -9       6       0                  SPLSRF       3D     62
     508      58       1       1       0       0       0       001010000D     63
     508       0       0       1       1                EDGELOOP       3D     64
     510      59       1       1       0       0       0       000010000D     65
     510       0      -9       1       1                    FACE       3D     66
     128      60       1       1       0       0       0       001010000D     67
     128       0      -9       8       0                  SPLSRF       4D     68
     508      68       1       1       0       0       0       001010000D     69
     508       0       0       1       1                EDGELOOP       4D     70
     510      69       1       1       0       0       0       000010000D     71
     510       0      -9       1       1                    FACE       4D     72
     128      70       1       1       0       0       0       001010000D     73
     128       0      -9       6       0                  SPLSRF       5D     74
     508      76       1       1       0       0       0       001010000D     75
     508       0       0       1       1                EDGELOOP       5D     76
     510      77       1       1       0       0       0       000010000D     77
     510       0      -9       1       1                    FACE       5D     78
     110      78       1       1       0       0       0       001010000D     79
     110       0      -9       1       0                    LINE      11D     80
     110      79       1       1       0       0       0       001010000D     81
     110       0      -9       1       0                    LINE      12D     82
     120      80       1       1       0       0       0       001010000D     83
     120       0      -9       1       0                    SREV       1D     84
     508      81       1       1       0       0       0       001010000D     85
     508       0       0       1       1                EDGELOOP       6D     86
     510      82       1       1       0       0       0       000010000D     87
     510       0      -9       1       1                    FACE       6D     88
     514      83       1       1       0       0       0       000000000D     89
     514       0      -9       1       1                   SHELL       1D     90
     186      84       1       1       0       0       0       000000000D     91
     186       0      -9       1       0                    MSBR       1D     92
314,1.1D0,1.2D0,1D2;                                                   1P      1
314,1.1D1,1.1D1,1.1D1;                                                 3P      2
314,3.92D1,1.2D0,1.2D0;                                                5P      3
314,4.1D1,0D0,2.2D1;                                                   7P      4
314,8.784D1,9.49D1,1D2;                                                9P      5
314,9.6D1,9.6D1,9.6D1;                                                11P      6
314,9.8D1,6.27D1,0D0;                                                 13P      7
314,1D2,1D2,9.49D1;                                                   15P      8
110,2.195D2,1.649D3,-3.6D2,2.195D2,1.649D3,-3.4D2;                    17P      9
110,-2.195D2,1.649D3,-3.6D2,-2.195D2,1.649D3,-3.4D2;                  19P     10
110,2.195D2,1.649D3,-3.6D2,-2.195D2,1.649D3,-3.6D2;                   21P     11
110,2.195D2,1.018233764909D3,-3.6D2,2.195D2,1.649D3,-3.6D2;           23P     12
110,-2.195D2,1.018233764909D3,-3.6D2,-2.195D2,1.649D3,-3.6D2;         25P     13
110,-2.195D2,1.018233764909D3,-3.6D2,2.195D2,1.018233764909D3,        27P     14
-3.6D2;                                                               27P     15
110,-2.195D2,1.649D3,-3.4D2,-2.195D2,1.025085362299D3,-3.4D2;         29P     16
110,2.195D2,1.025085362299D3,-3.4D2,-2.195D2,1.025085362299D3,        31P     17
-3.4D2;                                                               31P     18
110,-2.195D2,1.649D3,-3.4D2,2.195D2,1.649D3,-3.4D2;                   33P     19
110,2.195D2,1.649D3,-3.4D2,2.195D2,1.025085362299D3,-3.4D2;           35P     20
124,0D0,0D0,1D0,2.195D2,9.428090415821D-1,3.333333333333D-1,0D0,      37P     21
0D0,-3.333333333333D-1,9.428090415821D-1,0D0,0D0;                     37P     22
100,0D0,0D0,0D0,1.08D3,0D0,1.079793081302D3,2.114004662849D1;         39P     23
124,0D0,0D0,1D0,-2.195D2,9.428090415821D-1,3.333333333333D-1,         41P     24
0D0,0D0,-3.333333333333D-1,9.428090415821D-1,0D0,0D0;                 41P     25
100,0D0,0D0,0D0,1.08D3,0D0,1.079793081302D3,2.114004662849D1;         43P     26
502,8,2.195D2,1.649D3,-3.6D2,2.195D2,1.649D3,-3.4D2,-2.195D2,         45P     27
1.649D3,-3.6D2,-2.195D2,1.649D3,-3.4D2,2.195D2,1.018233764909D3,      45P     28
-3.6D2,-2.195D2,1.018233764909D3,-3.6D2,2.195D2,                      45P     29
1.025085362299D3,-3.4D2,-2.195D2,1.025085362299D3,-3.4D2;             45P     30
504,12,17,45,1,45,2,19,45,3,45,4,23,45,5,45,1,25,45,6,45,3,39,        47P     31
45,5,45,7,43,45,6,45,8,21,45,1,45,3,27,45,6,45,5,35,45,2,45,7,        47P     32
29,45,4,45,8,33,45,4,45,2,31,45,7,45,8;                               47P     33
128,1,1,1,1,0,0,1,0,0,-2.2828D2,-2.2828D2,2.2828D2,2.2828D2,          49P     34
3.385082440167D2,3.385082440167D2,3.614917559833D2,                   49P     35
3.614917559833D2,1D0,1D0,1D0,1D0,-2.2828D2,1.649D3,                   49P     36
-3.385082440167D2,2.2828D2,1.649D3,-3.385082440167D2,-2.2828D2,       49P     37
1.649D3,-3.614917559833D2,2.2828D2,1.649D3,-3.614917559833D2,         49P     38
-2.2828D2,2.2828D2,3.385082440167D2,3.614917559833D2;                 49P     39
508,4,0,47,1,1,0,0,47,11,0,0,0,47,2,0,0,0,47,7,0,0;                   51P     40
510,49,1,0,51;                                                        53P     41
128,1,1,1,1,0,0,1,0,0,-1.491755983273D0,-1.491755983273D0,            55P     42
2.149175598327D1,2.149175598327D1,-6.433815597932D2,                  55P     43
-6.433815597932D2,1.261532470183D1,1.261532470183D1,1D0,1D0,1D0,      55P     44
1D0,2.195D2,1.005618440207D3,-3.614917559833D2,2.195D2,               55P     45
1.005618440207D3,-3.385082440167D2,2.195D2,1.661615324702D3,          55P     46
-3.614917559833D2,2.195D2,1.661615324702D3,-3.385082440167D2,         55P     47
-1.491755983273D0,2.149175598327D1,-6.433815597932D2,                 55P     48
1.261532470183D1;                                                     55P     49
508,4,0,47,1,0,0,0,47,3,0,0,0,47,5,1,0,0,47,9,0,0;                    57P     50
510,55,1,0,57;                                                        59P     51
128,1,1,1,1,0,0,1,0,0,6.22D0,6.22D0,4.6278D2,4.6278D2,                61P     52
-6.433815597932D2,-6.433815597932D2,1.261532470183D1,                 61P     53
1.261532470183D1,1D0,1D0,1D0,1D0,2.2828D2,1.005618440207D3,           61P     54
-3.6D2,-2.2828D2,1.005618440207D3,-3.6D2,2.2828D2,                    61P     55
1.661615324702D3,-3.6D2,-2.2828D2,1.661615324702D3,-3.6D2,            61P     56
6.22D0,4.6278D2,-6.433815597932D2,1.261532470183D1;                   61P     57
508,4,0,47,3,1,0,0,47,7,1,0,0,47,4,0,0,0,47,8,1,0;                    63P     58
510,61,1,0,63;                                                        65P     59
128,1,1,1,1,0,0,1,0,0,-1.491755983273D0,-1.491755983273D0,            67P     60
2.149175598327D1,2.149175598327D1,-6.433815597932D2,                  67P     61
-6.433815597932D2,1.261532470183D1,1.261532470183D1,1D0,1D0,1D0,      67P     62
1D0,-2.195D2,1.005618440207D3,-3.385082440167D2,-2.195D2,             67P     63
1.005618440207D3,-3.614917559833D2,-2.195D2,1.661615324702D3,         67P     64
-3.385082440167D2,-2.195D2,1.661615324702D3,-3.614917559833D2,        67P     65
-1.491755983273D0,2.149175598327D1,-6.433815597932D2,                 67P     66
1.261532470183D1;                                                     67P     67
508,4,0,47,2,1,0,0,47,10,1,0,0,47,6,0,0,0,47,4,1,0;                   69P     68
510,67,1,0,69;                                                        71P     69
128,1,1,1,1,0,0,1,0,0,-1.378D1,-1.378D1,4.4278D2,4.4278D2,            73P     70
-6.363929304549D2,-6.363929304549D2,1.247829275402D1,                 73P     71
1.247829275402D1,1D0,1D0,1D0,1D0,-2.2828D2,1.012607069545D3,          73P     72
-3.4D2,2.2828D2,1.012607069545D3,-3.4D2,-2.2828D2,                    73P     73
1.661478292754D3,-3.4D2,2.2828D2,1.661478292754D3,-3.4D2,             73P     74
-1.378D1,4.4278D2,-6.363929304549D2,1.247829275402D1;                 73P     75
508,4,0,47,12,1,0,0,47,10,0,0,0,47,11,1,0,0,47,9,1,0;                 75P     76
510,73,1,0,75;                                                        77P     77
110,3D2,0D0,0D0,3.01D2,0D0,0D0;                                       79P     78
110,-2.2828D2,1.08D3,0D0,2.2828D2,1.08D3,0D0;                         81P     79
120,79,81,-3.412181649942D-1,-3.188802864922D-1;                      83P     80
508,4,0,47,5,0,0,0,47,8,0,0,0,47,6,1,0,0,47,12,0,0;                   85P     81
510,83,1,0,85;                                                        87P     82
514,6,53,1,59,0,65,1,71,0,77,1,87,0;                                  89P     83
186,89,1,0;                                                           91P     84
S      1G      4D     92P     84                                        T      1
