 PTC IGES file: gbt5783_m8-16_2_mir.igs                                 S      1
1H,,1H;,19HGBT5783_M8-16_2_MIR,23Hgbt5783_m8-16_2_mir.igs,              G      1
49HPro/ENGINEER by Parametric Technology Corporation,7H2004110,32,38,7, G      2
38,15,19HGBT5783_M8-16_2_MIR,1.,2,2HMM,32768,0.5,13H080428.080959,      G      3
0.00225897,22.5906,10Hliuxiaokun,7HUnknown,10,0,13H080428.080959;       G      4
     314       1       1       1       0       0       0       001000200D      1
     314       0       4       1       0                   COLOR       1D      2
     314       2       1       1       0       0       0       001000200D      3
     314       0       1       1       0                   COLOR       2D      4
     314       3       1       1       0       0       0       001000200D      5
     314       0       1       1       0                   COLOR       3D      6
     314       4       1       1       0       0       0       001000200D      7
     314       0       1       1       0                   COLOR       4D      8
     314       5       1       1       0       0       0       001000200D      9
     314       0       8       1       0                   COLOR       5D     10
     314       6       1       1       0       0       0       001000200D     11
     314       0       8       1       0                   COLOR       6D     12
     314       7       1       1       0       0       0       001000200D     13
     314       0       5       1       0                   COLOR       7D     14
     314       8       1       1       0       0       0       001000200D     15
     314       0       8       1       0                   COLOR       8D     16
     110       9       1       1       0       0       0       001010000D     17
     110       0       0       1       0                    LINE       1D     18
     110      10       1       1       0       0       0       001010000D     19
     110       0       0       1       0                    LINE       2D     20
     110      11       1       1       0       0       0       001010000D     21
     110       0       0       1       0                    LINE       3D     22
     110      12       1       1       0       0       0       001010000D     23
     110       0       0       1       0                    LINE       4D     24
     110      13       1       1       0       0       0       001010000D     25
     110       0       0       1       0                    LINE       5D     26
     110      14       1       1       0       0       0       001010000D     27
     110       0       0       1       0                    LINE       6D     28
     110      15       1       1       0       0       0       001010000D     29
     110       0       0       1       0                    LINE       7D     30
     110      16       1       1       0       0       0       001010000D     31
     110       0       0       1       0                    LINE       8D     32
     110      17       1       1       0       0       0       001010000D     33
     110       0       0       1       0                    LINE       9D     34
     110      18       1       1       0       0       0       001010000D     35
     110       0       0       1       0                    LINE      10D     36
     110      19       1       1       0       0       0       001010000D     37
     110       0       0       1       0                    LINE      11D     38
     110      20       1       1       0       0       0       001010000D     39
     110       0       0       1       0                    LINE      12D     40
     110      21       1       1       0       0       0       001010000D     41
     110       0       0       1       0                    LINE      13D     42
     110      22       1       1       0       0       0       001010000D     43
     110       0       0       1       0                    LINE      14D     44
     110      23       1       1       0       0       0       001010000D     45
     110       0       0       1       0                    LINE      15D     46
     110      24       1       1       0       0       0       001010000D     47
     110       0       0       1       0                    LINE      16D     48
     110      25       1       1       0       0       0       001010000D     49
     110       0       0       1       0                    LINE      17D     50
     110      26       1       1       0       0       0       001010000D     51
     110       0       0       1       0                    LINE      18D     52
     124      27       1       1       0       0       0       001000000D     53
     124       0       0       1       0                   XFORM       1D     54
     100      28       1       1       0       0      53       001010000D     55
     100       0       0       1       0                     ARC       1D     56
     124      29       1       1       0       0       0       001000000D     57
     124       0       0       1       0                   XFORM       2D     58
     100      30       1       1       0       0      57       001010000D     59
     100       0       0       1       0                     ARC       2D     60
     124      31       1       1       0       0       0       001000000D     61
     124       0       0       2       0                   XFORM       3D     62
     100      33       1       1       0       0      61       001010000D     63
     100       0       0       1       0                     ARC       3D     64
     110      34       1       1       0       0       0       001010000D     65
     110       0       0       2       0                    LINE      19D     66
     110      36       1       1       0       0       0       001010000D     67
     110       0       0       2       0                    LINE      20D     68
     124      38       1       1       0       0       0       001000000D     69
     124       0       0       2       0                   XFORM       4D     70
     100      40       1       1       0       0      69       001010000D     71
     100       0       0       1       0                     ARC       4D     72
     124      41       1       1       0       0       0       001000000D     73
     124       0       0       2       0                   XFORM       5D     74
     100      43       1       1       0       0      73       001010000D     75
     100       0       0       1       0                     ARC       5D     76
     110      44       1       1       0       0       0       001010000D     77
     110       0       0       2       0                    LINE      21D     78
     124      46       1       1       0       0       0       001000000D     79
     124       0       0       2       0                   XFORM       6D     80
     100      48       1       1       0       0      79       001010000D     81
     100       0       0       1       0                     ARC       6D     82
     110      49       1       1       0       0       0       001010000D     83
     110       0       0       2       0                    LINE      22D     84
     502      51       1       1       0       0       0       001010000D     85
     502       0       0       9       1                  VERTEX       1D     86
     504      60       1       1       0       0       0       000010001D     87
     504       0       0       7       1                    EDGE       1D     88
     128      67       1       1       0       0       0       001010000D     89
     128       0       0       5       0                  SPLSRF       1D     90
     508      72       1       1       0       0       0       001010000D     91
     508       0       0       2       1                EDGELOOP       1D     92
     510      74       1       1       0       0       0       000010000D     93
     510       0       0       1       1                    FACE       1D     94
     128      75       1       1       0       0       0       001010000D     95
     128       0       0       5       0                  SPLSRF       2D     96
     508      80       1       1       0       0       0       001010000D     97
     508       0       0       1       1                EDGELOOP       2D     98
     510      81       1       1       0       0       0       000010000D     99
     510       0       0       1       1                    FACE       2D    100
     128      82       1       1       0       0       0       001010000D    101
     128       0       0       5       0                  SPLSRF       3D    102
     508      87       1       1       0       0       0       001010000D    103
     508       0       0       1       1                EDGELOOP       3D    104
     510      88       1       1       0       0       0       000010000D    105
     510       0       0       1       1                    FACE       3D    106
     128      89       1       1       0       0       0       001010000D    107
     128       0       0       6       0                  SPLSRF       4D    108
     508      95       1       1       0       0       0       001010000D    109
     508       0       0       1       1                EDGELOOP       4D    110
     510      96       1       1       0       0       0       000010000D    111
     510       0       0       1       1                    FACE       4D    112
     128      97       1       1       0       0       0       001010000D    113
     128       0       0       5       0                  SPLSRF       5D    114
     508     102       1       1       0       0       0       001010000D    115
     508       0       0       1       1                EDGELOOP       5D    116
     510     103       1       1       0       0       0       000010000D    117
     510       0       0       1       1                    FACE       5D    118
     128     104       1       1       0       0       0       001010000D    119
     128       0       0       5       0                  SPLSRF       6D    120
     508     109       1       1       0       0       0       001010000D    121
     508       0       0       1       1                EDGELOOP       6D    122
     510     110       1       1       0       0       0       000010000D    123
     510       0       0       1       1                    FACE       6D    124
     128     111       1       1       0       0       0       001010000D    125
     128       0       0       5       0                  SPLSRF       7D    126
     508     116       1       1       0       0       0       001010000D    127
     508       0       0       1       1                EDGELOOP       7D    128
     510     117       1       1       0       0       0       000010000D    129
     510       0       0       1       1                    FACE       7D    130
     128     118       1       1       0       0       0       001010000D    131
     128       0       0       5       0                  SPLSRF       8D    132
     508     123       1       1       0       0       0       001010000D    133
     508       0       0       2       1                EDGELOOP       8D    134
     508     125       1       1       0       0       0       001010000D    135
     508       0       0       1       1                EDGELOOP       9D    136
     510     126       1       1       0       0       0       000010000D    137
     510       0       0       1       1                    FACE       8D    138
     110     127       1       1       0       0       0       001010000D    139
     110       0       0       1       0                    LINE      23D    140
     110     128       1       1       0       0       0       001010000D    141
     110       0       0       1       0                    LINE      24D    142
     120     129       1       1       0       0       0       001010000D    143
     120       0       0       1       0                    SREV       1D    144
     508     130       1       1       0       0       0       001010000D    145
     508       0       0       1       1                EDGELOOP      10D    146
     510     131       1       1       0       0       0       000010000D    147
     510       0       0       1       1                    FACE       9D    148
     110     132       1       1       0       0       0       001010000D    149
     110       0       0       1       0                    LINE      25D    150
     110     133       1       1       0       0       0       001010000D    151
     110       0       0       2       0                    LINE      26D    152
     120     135       1       1       0       0       0       001010000D    153
     120       0       0       1       0                    SREV       2D    154
     508     136       1       1       0       0       0       001010000D    155
     508       0       0       1       1                EDGELOOP      11D    156
     510     137       1       1       0       0       0       000010000D    157
     510       0       0       1       1                    FACE      10D    158
     128     138       1       1       0       0       0       001010000D    159
     128       0       0       6       0                  SPLSRF       9D    160
     508     144       1       1       0       0       0       001010000D    161
     508       0       0       1       1                EDGELOOP      12D    162
     510     145       1       1       0       0       0       000010000D    163
     510       0       0       1       1                    FACE      11D    164
     110     146       1       1       0       0       0       001010000D    165
     110       0       0       1       0                    LINE      27D    166
     110     147       1       1       0       0       0       001010000D    167
     110       0       0       2       0                    LINE      28D    168
     120     149       1       1       0       0       0       001010000D    169
     120       0       0       1       0                    SREV       3D    170
     508     150       1       1       0       0       0       001010000D    171
     508       0       0       1       1                EDGELOOP      13D    172
     510     151       1       1       0       0       0       000010000D    173
     510       0       0       1       1                    FACE      12D    174
     110     152       1       1       0       0       0       001010000D    175
     110       0       0       1       0                    LINE      29D    176
     110     153       1       1       0       0       0       001010000D    177
     110       0       0       1       0                    LINE      30D    178
     120     154       1       1       0       0       0       001010000D    179
     120       0       0       1       0                    SREV       4D    180
     508     155       1       1       0       0       0       001010000D    181
     508       0       0       1       1                EDGELOOP      14D    182
     510     156       1       1       0       0       0       000010000D    183
     510       0       0       1       1                    FACE      13D    184
     514     157       1       1       0       0       0       000000000D    185
     514       0       0       2       1                   SHELL       1D    186
     186     159       1       1       0       0       0       000000000D    187
     186       0       0       1       0                    MSBR       1D    188
314,1.1D0,1.2D0,1D2;                                                   1P      1
314,1.1D1,1.1D1,1.1D1;                                                 3P      2
314,3.92D1,1.2D0,1.2D0;                                                5P      3
314,4.1D1,0D0,2.2D1;                                                   7P      4
314,8.784D1,9.49D1,1D2;                                                9P      5
314,9.6D1,9.6D1,9.6D1;                                                11P      6
314,9.8D1,6.27D1,0D0;                                                 13P      7
314,1D2,1D2,9.49D1;                                                   15P      8
110,2.309401076759D0,4D0,0D0,-2.309401076759D0,4D0,0D0;               17P      9
110,4.618802153517D0,0D0,0D0,2.309401076759D0,4D0,0D0;                19P     10
110,2.309401076759D0,-4D0,0D0,4.618802153517D0,0D0,0D0;               21P     11
110,-2.309401076759D0,-4D0,0D0,2.309401076759D0,-4D0,0D0;             23P     12
110,-4.618802153517D0,0D0,0D0,-2.309401076759D0,-4D0,0D0;             25P     13
110,-2.309401076759D0,4D0,0D0,-4.618802153517D0,0D0,0D0;              27P     14
110,2.309401076759D0,4D0,0D0,2.309401076759D0,4D0,-4D0;               29P     15
110,-2.309401076759D0,4D0,0D0,-2.309401076759D0,4D0,-4D0;             31P     16
110,-4.618802153517D0,0D0,0D0,-4.618802153517D0,0D0,-4D0;             33P     17
110,-2.309401076759D0,-4D0,0D0,-2.309401076759D0,-4D0,-4D0;           35P     18
110,2.309401076759D0,-4D0,0D0,2.309401076759D0,-4D0,-4D0;             37P     19
110,4.618802153517D0,0D0,0D0,4.618802153517D0,0D0,-4D0;               39P     20
110,2.309401076759D0,4D0,-4D0,-2.309401076759D0,4D0,-4D0;             41P     21
110,-2.309401076759D0,4D0,-4D0,-4.618802153517D0,0D0,-4D0;            43P     22
110,-4.618802153517D0,0D0,-4D0,-2.309401076759D0,-4D0,-4D0;           45P     23
110,-2.309401076759D0,-4D0,-4D0,2.309401076759D0,-4D0,-4D0;           47P     24
110,2.309401076759D0,-4D0,-4D0,4.618802153517D0,0D0,-4D0;             49P     25
110,4.618802153517D0,0D0,-4D0,2.309401076759D0,4D0,-4D0;              51P     26
124,1D0,0D0,0D0,0D0,0D0,1D0,0D0,0D0,0D0,0D0,1D0,-4D0;                 53P     27
100,0D0,0D0,0D0,2.5D0,0D0,-2.5D0,0D0;                                 55P     28
124,-1D0,0D0,0D0,0D0,0D0,-1D0,0D0,0D0,0D0,0D0,1D0,-4D0;               57P     29
100,0D0,0D0,0D0,2.5D0,0D0,-2.5D0,0D0;                                 59P     30
124,1D0,0D0,0D0,0D0,0D0,1D0,0D0,0D0,0D0,0D0,1D0,                      61P     31
-1.849999898658D1;                                                    61P     32
100,0D0,0D0,0D0,2.5D0,0D0,-2.5D0,0D0;                                 63P     33
110,2.5D0,0D0,-4D0,2.499998856680D0,2.683582834931D-10,               65P     34
-1.849999885680D1;                                                    65P     35
110,1.999998780458D0,2.862487179745D-10,-1.899999878058D1,            67P     36
2.499998856680D0,2.683582834931D-10,-1.849999885680D1;                67P     37
124,-1D0,0D0,0D0,0D0,0D0,-1D0,0D0,0D0,0D0,0D0,1D0,                    69P     38
-1.899999857439D1;                                                    69P     39
100,0D0,0D0,0D0,1.999997767172D0,0D0,-1.999997767172D0,0D0;           71P     40
124,1D0,0D0,0D0,0D0,0D0,1D0,0D0,0D0,0D0,0D0,1D0,                      73P     41
-1.899999857439D1;                                                    73P     42
100,0D0,0D0,0D0,1.999997767172D0,0D0,-1.999997767172D0,0D0;           75P     43
110,-1.999998780458D0,-2.862484142889D-10,-1.899999878058D1,          77P     44
-2.499998856680D0,-2.683576106303D-10,-1.849999885680D1;              77P     45
124,-1D0,0D0,0D0,0D0,0D0,-1D0,0D0,0D0,0D0,0D0,1D0,                    79P     46
-1.849999898658D1;                                                    79P     47
100,0D0,0D0,0D0,2.5D0,0D0,-2.5D0,0D0;                                 81P     48
110,-2.5D0,0D0,-4D0,-2.499998856680D0,-2.683576106303D-10,            83P     49
-1.849999885680D1;                                                    83P     50
502,18,2.309401076759D0,4D0,0D0,-2.309401076759D0,4D0,0D0,            85P     51
-4.618802153517D0,0D0,0D0,-2.309401076759D0,-4D0,0D0,                 85P     52
2.309401076759D0,-4D0,0D0,4.618802153517D0,0D0,0D0,                   85P     53
2.309401076759D0,4D0,-4D0,-2.309401076759D0,4D0,-4D0,                 85P     54
-4.618802153517D0,0D0,-4D0,-2.309401076759D0,-4D0,-4D0,               85P     55
2.309401076759D0,-4D0,-4D0,4.618802153517D0,0D0,-4D0,2.5D0,0D0,       85P     56
-4D0,-2.5D0,0D0,-4D0,-1.999997767172D0,0D0,-1.899999857439D1,         85P     57
1.999997767172D0,0D0,-1.899999857439D1,-2.5D0,0D0,                    85P     58
-1.849999898658D1,2.5D0,0D0,-1.849999898658D1;                        85P     59
504,28,17,85,1,85,2,27,85,2,85,3,25,85,3,85,4,23,85,4,85,5,21,        87P     60
85,5,85,6,19,85,6,85,1,41,85,7,85,8,43,85,8,85,9,45,85,9,85,10,       87P     61
47,85,10,85,11,49,85,11,85,12,51,85,12,85,7,29,85,1,85,7,31,85,       87P     62
2,85,8,33,85,3,85,9,35,85,4,85,10,37,85,5,85,11,39,85,6,85,12,        87P     63
55,85,13,85,14,59,85,14,85,13,71,85,15,85,16,81,85,17,85,18,75,       87P     64
85,16,85,15,63,85,18,85,17,65,85,13,85,18,83,85,14,85,17,67,85,       87P     65
16,85,18,77,85,15,85,17;                                              87P     66
128,1,1,1,1,0,0,1,0,0,-4.803554239658D0,-4.803554239658D0,            89P     67
4.803554239658D0,4.803554239658D0,-4.16D0,-4.16D0,4.16D0,4.16D0,      89P     68
1D0,1D0,1D0,1D0,-4.803554239658D0,-4.16D0,0D0,4.803554239658D0,       89P     69
-4.16D0,0D0,-4.803554239658D0,4.16D0,0D0,4.803554239658D0,            89P     70
4.16D0,0D0,-4.803554239658D0,4.803554239658D0,-4.16D0,4.16D0;         89P     71
508,6,0,87,1,0,0,0,87,6,0,0,0,87,5,0,0,0,87,4,0,0,0,87,3,0,0,0,       91P     72
87,2,0,0;                                                             91P     73
510,89,1,0,91;                                                        93P     74
128,1,1,1,1,0,0,1,0,0,-9.237604307034D-2,-9.237604307034D-2,          95P     75
4.711178196587D0,4.711178196587D0,-8D-2,-8D-2,4.08D0,4.08D0,1D0,      95P     76
1D0,1D0,1D0,2.401777119829D0,4D0,8D-2,-2.401777119829D0,4D0,          95P     77
8D-2,2.401777119829D0,4D0,-4.08D0,-2.401777119829D0,4D0,-4.08D0,      95P     78
-9.237604307034D-2,4.711178196587D0,-8D-2,4.08D0;                     95P     79
508,4,0,87,1,1,0,0,87,14,1,0,0,87,7,0,0,0,87,13,0,0;                  97P     80
510,95,1,0,97;                                                        99P     81
128,1,1,1,1,0,0,1,0,0,-9.237604307034D-2,-9.237604307034D-2,         101P     82
4.711178196587D0,4.711178196587D0,-8D-2,-8D-2,4.08D0,4.08D0,1D0,     101P     83
1D0,1D0,1D0,-2.263213055223D0,4.08D0,8D-2,-4.664990175052D0,         101P     84
-8D-2,8D-2,-2.263213055223D0,4.08D0,-4.08D0,-4.664990175052D0,       101P     85
-8D-2,-4.08D0,-9.237604307034D-2,4.711178196587D0,-8D-2,4.08D0;      101P     86
508,4,0,87,2,1,0,0,87,15,1,0,0,87,8,0,0,0,87,14,0,0;                 103P     87
510,101,1,0,103;                                                     105P     88
128,1,1,1,1,0,0,1,0,0,-9.237604307034D-2,-9.237604307034D-2,         107P     89
4.711178196587D0,4.711178196587D0,-8D-2,-8D-2,4.08D0,4.08D0,1D0,     107P     90
1D0,1D0,1D0,-4.664990175052D0,8D-2,8D-2,-2.263213055223D0,           107P     91
-4.08D0,8D-2,-4.664990175052D0,8D-2,-4.08D0,-2.263213055223D0,       107P     92
-4.08D0,-4.08D0,-9.237604307034D-2,4.711178196587D0,-8D-2,           107P     93
4.08D0;                                                              107P     94
508,4,0,87,3,1,0,0,87,16,1,0,0,87,9,0,0,0,87,15,0,0;                 109P     95
510,107,1,0,109;                                                     111P     96
128,1,1,1,1,0,0,1,0,0,-9.237604307034D-2,-9.237604307034D-2,         113P     97
4.711178196587D0,4.711178196587D0,-8D-2,-8D-2,4.08D0,4.08D0,1D0,     113P     98
1D0,1D0,1D0,-2.401777119829D0,-4D0,8D-2,2.401777119829D0,-4D0,       113P     99
8D-2,-2.401777119829D0,-4D0,-4.08D0,2.401777119829D0,-4D0,           113P    100
-4.08D0,-9.237604307034D-2,4.711178196587D0,-8D-2,4.08D0;            113P    101
508,4,0,87,4,1,0,0,87,17,1,0,0,87,10,0,0,0,87,16,0,0;                115P    102
510,113,1,0,115;                                                     117P    103
128,1,1,1,1,0,0,1,0,0,-9.237604307034D-2,-9.237604307034D-2,         119P    104
4.711178196587D0,4.711178196587D0,-8D-2,-8D-2,4.08D0,4.08D0,1D0,     119P    105
1D0,1D0,1D0,2.263213055223D0,-4.08D0,8D-2,4.664990175052D0,8D-2,     119P    106
8D-2,2.263213055223D0,-4.08D0,-4.08D0,4.664990175052D0,8D-2,         119P    107
-4.08D0,-9.237604307034D-2,4.711178196587D0,-8D-2,4.08D0;            119P    108
508,4,0,87,5,1,0,0,87,18,1,0,0,87,11,0,0,0,87,17,0,0;                121P    109
510,119,1,0,121;                                                     123P    110
128,1,1,1,1,0,0,1,0,0,-9.237604307034D-2,-9.237604307034D-2,         125P    111
4.711178196587D0,4.711178196587D0,-8D-2,-8D-2,4.08D0,4.08D0,1D0,     125P    112
1D0,1D0,1D0,4.664990175052D0,-8D-2,8D-2,2.263213055223D0,4.08D0,     125P    113
8D-2,4.664990175052D0,-8D-2,-4.08D0,2.263213055223D0,4.08D0,         125P    114
-4.08D0,-9.237604307034D-2,4.711178196587D0,-8D-2,4.08D0;            125P    115
508,4,0,87,6,1,0,0,87,13,1,0,0,87,12,0,0,0,87,18,0,0;                127P    116
510,125,1,0,127;                                                     129P    117
128,1,1,1,1,0,0,1,0,0,-4.803554239658D0,-4.803554239658D0,           131P    118
4.803554239658D0,4.803554239658D0,-4.16D0,-4.16D0,4.16D0,4.16D0,     131P    119
1D0,1D0,1D0,1D0,-4.803554239658D0,-4.16D0,-4D0,4.803554239658D0,     131P    120
-4.16D0,-4D0,-4.803554239658D0,4.16D0,-4D0,4.803554239658D0,         131P    121
4.16D0,-4D0,-4.803554239658D0,4.803554239658D0,-4.16D0,4.16D0;       131P    122
508,6,0,87,7,1,0,0,87,8,1,0,0,87,9,1,0,0,87,10,1,0,0,87,11,1,0,      133P    123
0,87,12,1,0;                                                         133P    124
508,2,0,87,19,0,0,0,87,20,0,0;                                       135P    125
510,131,2,0,133,135;                                                 137P    126
110,0D0,0D0,-4D0,0D0,0D0,-3D0;                                       139P    127
110,2.5D0,0D0,-1.879000186900D1,2.5D0,0D0,-3.709999963353D0;         141P    128
120,139,141,-6.283185307180D-2,3.204424506662D0;                     143P    129
508,4,0,87,24,0,0,0,87,25,0,0,0,87,19,1,0,0,87,26,1,0;               145P    130
510,143,1,0,145;                                                     147P    131
110,0D0,0D0,-2.1D1,0D0,0D0,-2.2D1;                                   149P    132
110,0D0,-2.519171275684D0,-1.848082411619D1,0D0,                     151P    133
-1.980825591967D0,-1.901917078466D1;                                 151P    134
120,149,151,-4.775220837496D0,-1.507964470113D0;                     153P    135
508,4,0,87,23,0,0,0,87,27,1,0,0,87,24,1,0,0,87,28,0,0;               155P    136
510,153,1,0,155;                                                     157P    137
128,1,1,1,1,0,0,1,0,0,-2.08D0,-2.08D0,2.08D0,2.08D0,                 159P    138
-2.079999977678D0,-2.079999977678D0,2.079999977678D0,                159P    139
2.079999977678D0,1D0,1D0,1D0,1D0,-2.08D0,-2.079999977678D0,          159P    140
-1.9D1,2.08D0,-2.079999977678D0,-1.9D1,-2.08D0,2.079999977678D0,     159P    141
-1.9D1,2.08D0,2.079999977678D0,-1.9D1,-2.08D0,2.08D0,                159P    142
-2.079999977678D0,2.079999977678D0;                                  159P    143
508,2,0,87,21,1,0,0,87,23,1,0;                                       161P    144
510,159,1,0,161;                                                     163P    145
110,0D0,0D0,-2.1D1,0D0,0D0,-2.2D1;                                   165P    146
110,0D0,-2.519171275684D0,-1.848082411619D1,0D0,                     167P    147
-1.980825591967D0,-1.901917078466D1;                                 167P    148
120,165,167,-1.633628183906D0,1.633628183477D0;                      169P    149
508,4,0,87,21,0,0,0,87,28,1,0,0,87,22,1,0,0,87,27,0,0;               171P    150
510,169,1,0,171;                                                     173P    151
110,0D0,0D0,-4D0,0D0,0D0,-3D0;                                       175P    152
110,2.5D0,0D0,-1.879000186900D1,2.5D0,0D0,-3.709999963353D0;         177P    153
120,175,177,3.078760800518D0,6.346017160251D0;                       179P    154
508,4,0,87,22,0,0,0,87,26,0,0,0,87,20,1,0,0,87,25,1,0;               181P    155
510,179,1,0,181;                                                     183P    156
514,13,93,1,99,0,105,0,111,0,117,0,123,0,129,0,137,0,147,1,157,      185P    157
1,163,0,173,1,183,1;                                                 185P    158
186,185,1,0;                                                         187P    159
S      1G      4D    188P    159                                        T      1
