 PTC IGES file: ga-2_50.igs                                             S      1
1H,,1H;,7HGA-2_50,11Hga-2_50.igs,                                       G      1
49HPro/ENGINEER by Parametric Technology Corporation,7H2004110,32,38,7, G      2
38,15,7HGA-2_50,1.,2,2HMM,32768,0.5,13H080428.081004,0.00290785,        G      3
29.0796,10Hliuxiaokun,7HUnknown,10,0,13H080428.081004;                  G      4
     314       1       1       1       0       0       0       001000200D      1
     314       0       4       1       0                   COLOR       1D      2
     314       2       1       1       0       0       0       001000200D      3
     314       0       1       1       0                   COLOR       2D      4
     314       3       1       1       0       0       0       001000200D      5
     314       0       4       1       0                   COLOR       3D      6
     314       4       1       1       0       0       0       001000200D      7
     314       0       1       1       0                   COLOR       4D      8
     314       5       1       1       0       0       0       001000200D      9
     314       0       1       1       0                   COLOR       5D     10
     314       6       1       1       0       0       0       001000200D     11
     314       0       8       1       0                   COLOR       6D     12
     314       7       1       1       0       0       0       001000200D     13
     314       0       8       1       0                   COLOR       7D     14
     314       8       1       1       0       0       0       001000200D     15
     314       0       5       1       0                   COLOR       8D     16
     314       9       1       1       0       0       0       001000200D     17
     314       0       8       1       0                   COLOR       9D     18
     124      10       1       1       0       0       0       001000000D     19
     124       0       0       2       0                   XFORM       1D     20
     100      12       1       1       0       0      19       001010000D     21
     100       0      -5       1       0                     ARC       1D     22
     124      13       1       1       0       0       0       001000000D     23
     124       0       0       2       0                   XFORM       2D     24
     100      15       1       1       0       0      23       001010000D     25
     100       0      -5       1       0                     ARC       2D     26
     124      16       1       1       0       0       0       001000000D     27
     124       0       0       2       0                   XFORM       3D     28
     100      18       1       1       0       0      27       001010000D     29
     100       0      -5       1       0                     ARC       3D     30
     124      19       1       1       0       0       0       001000000D     31
     124       0       0       2       0                   XFORM       4D     32
     100      21       1       1       0       0      31       001010000D     33
     100       0      -5       1       0                     ARC       4D     34
     124      22       1       1       0       0       0       001000000D     35
     124       0       0       2       0                   XFORM       5D     36
     100      24       1       1       0       0      35       001010000D     37
     100       0      -5       1       0                     ARC       5D     38
     110      25       1       1       0       0       0       001010000D     39
     110       0      -5       1       0                    LINE       1D     40
     124      26       1       1       0       0       0       001000000D     41
     124       0       0       2       0                   XFORM       6D     42
     100      28       1       1       0       0      41       001010000D     43
     100       0      -5       1       0                     ARC       6D     44
     110      29       1       1       0       0       0       001010000D     45
     110       0      -5       1       0                    LINE       2D     46
     110      30       1       1       0       0       0       001010000D     47
     110       0      -5       1       0                    LINE       3D     48
     110      31       1       1       0       0       0       001010000D     49
     110       0      -5       1       0                    LINE       4D     50
     124      32       1       1       0       0       0       001000000D     51
     124       0       0       2       0                   XFORM       7D     52
     100      34       1       1       0       0      51       001010000D     53
     100       0      -5       1       0                     ARC       7D     54
     124      35       1       1       0       0       0       001000000D     55
     124       0       0       2       0                   XFORM       8D     56
     100      37       1       1       0       0      55       001010000D     57
     100       0      -5       1       0                     ARC       8D     58
     124      38       1       1       0       0       0       001000000D     59
     124       0       0       2       0                   XFORM       9D     60
     100      40       1       1       0       0      59       001010000D     61
     100       0      -5       1       0                     ARC       9D     62
     124      41       1       1       0       0       0       001000000D     63
     124       0       0       2       0                   XFORM      10D     64
     100      43       1       1       0       0      63       001010000D     65
     100       0      -5       1       0                     ARC      10D     66
     124      44       1       1       0       0       0       001000000D     67
     124       0       0       2       0                   XFORM      11D     68
     100      46       1       1       0       0      67       001010000D     69
     100       0      -5       1       0                     ARC      11D     70
     110      47       1       1       0       0       0       001010000D     71
     110       0      -5       1       0                    LINE       5D     72
     124      48       1       1       0       0       0       001000000D     73
     124       0       0       2       0                   XFORM      12D     74
     100      50       1       1       0       0      73       001010000D     75
     100       0      -5       1       0                     ARC      12D     76
     110      51       1       1       0       0       0       001010000D     77
     110       0      -5       1       0                    LINE       6D     78
     110      52       1       1       0       0       0       001010000D     79
     110       0      -5       1       0                    LINE       7D     80
     110      53       1       1       0       0       0       001010000D     81
     110       0      -5       1       0                    LINE       8D     82
     110      54       1       1       0       0       0       001010000D     83
     110       0      -5       1       0                    LINE       9D     84
     110      55       1       1       0       0       0       001010000D     85
     110       0      -5       1       0                    LINE      10D     86
     110      56       1       1       0       0       0       001010000D     87
     110       0      -5       1       0                    LINE      11D     88
     110      57       1       1       0       0       0       001010000D     89
     110       0      -5       1       0                    LINE      12D     90
     502      58       1       1       0       0       0       001010000D     91
     502       0      -5       8       1                  VERTEX       1D     92
     504      66       1       1       0       0       0       000010001D     93
     504       0      -5       6       1                    EDGE       1D     94
     128      72       1       1       0       0       0       001010000D     95
     128       0      -5       6       0                  SPLSRF       1D     96
     508      78       1       1       0       0       0       001010000D     97
     508       0       0       1       1                EDGELOOP       1D     98
     508      79       1       1       0       0       0       001010000D     99
     508       0       0       1       1                EDGELOOP       2D    100
     508      80       1       1       0       0       0       001010000D    101
     508       0       0       1       1                EDGELOOP       3D    102
     510      81       1       1       0       0       0       000010000D    103
     510       0      -5       1       1                    FACE       1D    104
     110      82       1       1       0       0       0       001010000D    105
     110       0      -5       1       0                    LINE      13D    106
     110      83       1       1       0       0       0       001010000D    107
     110       0      -5       1       0                    LINE      14D    108
     120      84       1       1       0       0       0       001010000D    109
     120       0      -5       1       0                    SREV       1D    110
     508      85       1       1       0       0       0       001010000D    111
     508       0       0       1       1                EDGELOOP       4D    112
     510      86       1       1       0       0       0       000010000D    113
     510       0      -5       1       1                    FACE       2D    114
     110      87       1       1       0       0       0       001010000D    115
     110       0      -5       1       0                    LINE      15D    116
     110      88       1       1       0       0       0       001010000D    117
     110       0      -5       1       0                    LINE      16D    118
     120      89       1       1       0       0       0       001010000D    119
     120       0      -5       1       0                    SREV       2D    120
     508      90       1       1       0       0       0       001010000D    121
     508       0       0       1       1                EDGELOOP       5D    122
     510      91       1       1       0       0       0       000010000D    123
     510       0      -5       1       1                    FACE       3D    124
     128      92       1       1       0       0       0       001010000D    125
     128       0      -5       6       0                  SPLSRF       2D    126
     508      98       1       1       0       0       0       001010000D    127
     508       0       0       1       1                EDGELOOP       6D    128
     508      99       1       1       0       0       0       001010000D    129
     508       0       0       1       1                EDGELOOP       7D    130
     508     100       1       1       0       0       0       001010000D    131
     508       0       0       1       1                EDGELOOP       8D    132
     510     101       1       1       0       0       0       000010000D    133
     510       0      -5       1       1                    FACE       4D    134
     110     102       1       1       0       0       0       001010000D    135
     110       0      -5       1       0                    LINE      17D    136
     110     103       1       1       0       0       0       001010000D    137
     110       0      -5       1       0                    LINE      18D    138
     120     104       1       1       0       0       0       001010000D    139
     120       0      -5       1       0                    SREV       3D    140
     508     105       1       1       0       0       0       001010000D    141
     508       0       0       1       1                EDGELOOP       9D    142
     510     106       1       1       0       0       0       000010000D    143
     510       0      -5       1       1                    FACE       5D    144
     110     107       1       1       0       0       0       001010000D    145
     110       0      -5       1       0                    LINE      19D    146
     110     108       1       1       0       0       0       001010000D    147
     110       0      -5       1       0                    LINE      20D    148
     120     109       1       1       0       0       0       001010000D    149
     120       0      -5       1       0                    SREV       4D    150
     508     110       1       1       0       0       0       001010000D    151
     508       0       0       1       1                EDGELOOP      10D    152
     510     111       1       1       0       0       0       000010000D    153
     510       0      -5       1       1                    FACE       6D    154
     110     112       1       1       0       0       0       001010000D    155
     110       0      -5       1       0                    LINE      21D    156
     110     113       1       1       0       0       0       001010000D    157
     110       0      -5       1       0                    LINE      22D    158
     120     114       1       1       0       0       0       001010000D    159
     120       0      -5       1       0                    SREV       5D    160
     508     115       1       1       0       0       0       001010000D    161
     508       0       0       1       1                EDGELOOP      11D    162
     510     116       1       1       0       0       0       000010000D    163
     510       0      -5       1       1                    FACE       7D    164
     128     117       1       1       0       0       0       001010000D    165
     128       0      -5       4       0                  SPLSRF       3D    166
     508     121       1       1       0       0       0       001010000D    167
     508       0       0       1       1                EDGELOOP      12D    168
     510     122       1       1       0       0       0       000010000D    169
     510       0      -5       1       1                    FACE       8D    170
     110     123       1       1       0       0       0       001010000D    171
     110       0      -5       1       0                    LINE      23D    172
     110     124       1       1       0       0       0       001010000D    173
     110       0      -5       1       0                    LINE      24D    174
     120     125       1       1       0       0       0       001010000D    175
     120       0      -5       1       0                    SREV       6D    176
     508     126       1       1       0       0       0       001010000D    177
     508       0       0       1       1                EDGELOOP      13D    178
     510     127       1       1       0       0       0       000010000D    179
     510       0      -5       1       1                    FACE       9D    180
     128     128       1       1       0       0       0       001010000D    181
     128       0      -5       4       0                  SPLSRF       4D    182
     508     132       1       1       0       0       0       001010000D    183
     508       0       0       1       1                EDGELOOP      14D    184
     510     133       1       1       0       0       0       000010000D    185
     510       0      -5       1       1                    FACE      10D    186
     514     134       1       1       0       0       0       000000000D    187
     514       0      -5       2       1                   SHELL       1D    188
     186     136       1       1       0       0       0       000000000D    189
     186       0      -5       1       0                    MSBR       1D    190
314,1.1D0,1.2D0,1D2;                                                   1P      1
314,1.1D1,1.1D1,1.1D1;                                                 3P      2
314,1.611486038968D1,3.642414046536D1,1D2;                             5P      3
314,3.92D1,1.2D0,1.2D0;                                                7P      4
314,4.1D1,0D0,2.2D1;                                                   9P      5
314,8.784D1,9.49D1,1D2;                                               11P      6
314,9.6D1,9.6D1,9.6D1;                                                13P      7
314,9.8D1,6.27D1,0D0;                                                 15P      8
314,1D2,1D2,9.49D1;                                                   17P      9
124,0D0,1D0,0D0,0D0,-1D0,0D0,0D0,8.147172903354D1,0D0,0D0,1D0,        19P     10
0D0;                                                                  19P     11
100,0D0,0D0,0D0,1.5D0,0D0,-1.5D0,0D0;                                 21P     12
124,0D0,-1D0,0D0,0D0,1D0,0D0,0D0,8.147172903354D1,0D0,0D0,1D0,        23P     13
0D0;                                                                  23P     14
100,0D0,0D0,0D0,1.5D0,0D0,-1.5D0,0D0;                                 25P     15
124,0D0,1D0,0D0,0D0,-1D0,0D0,0D0,9.547172903354D1,0D0,0D0,1D0,        27P     16
0D0;                                                                  27P     17
100,0D0,0D0,0D0,1.5D0,0D0,-1.5D0,0D0;                                 29P     18
124,0D0,-1D0,0D0,0D0,1D0,0D0,0D0,9.547172903354D1,0D0,0D0,1D0,        31P     19
0D0;                                                                  31P     20
100,0D0,0D0,0D0,1.5D0,0D0,-1.5D0,0D0;                                 33P     21
124,-1D0,0D0,0D0,0D0,0D0,1D0,0D0,9.547172903354D1,0D0,0D0,-1D0,       35P     22
0D0;                                                                  35P     23
100,0D0,0D0,0D0,6D0,0D0,-6D0,0D0;                                     37P     24
110,6D0,9.547172903354D1,0D0,6D0,8.147172903354D1,0D0;                39P     25
124,1D0,0D0,0D0,0D0,0D0,-1D0,0D0,8.147172903354D1,0D0,0D0,-1D0,       41P     26
0D0;                                                                  41P     27
100,0D0,0D0,0D0,6D0,0D0,-6D0,0D0;                                     43P     28
110,-6D0,8.147172903354D1,0D0,-6D0,9.547172903354D1,0D0;              45P     29
110,0D0,7.997172903354D1,0D0,0D0,7.997172903354D1,-5D0;               47P     30
110,0D0,8.297172903354D1,0D0,0D0,8.297172903354D1,-5D0;               49P     31
124,0D0,1D0,0D0,0D0,-1D0,0D0,0D0,8.147172903354D1,0D0,0D0,1D0,        51P     32
-5D0;                                                                 51P     33
100,0D0,0D0,0D0,1.5D0,0D0,-1.5D0,0D0;                                 53P     34
124,0D0,-1D0,0D0,0D0,1D0,0D0,0D0,8.147172903354D1,0D0,0D0,1D0,        55P     35
-5D0;                                                                 55P     36
100,0D0,0D0,0D0,1.5D0,0D0,-1.5D0,0D0;                                 57P     37
124,0D0,1D0,0D0,0D0,-1D0,0D0,0D0,9.547172903354D1,0D0,0D0,1D0,        59P     38
-5D0;                                                                 59P     39
100,0D0,0D0,0D0,1.5D0,0D0,-1.5D0,0D0;                                 61P     40
124,0D0,-1D0,0D0,0D0,1D0,0D0,0D0,9.547172903354D1,0D0,0D0,1D0,        63P     41
-5D0;                                                                 63P     42
100,0D0,0D0,0D0,1.5D0,0D0,-1.5D0,0D0;                                 65P     43
124,-1D0,0D0,0D0,0D0,0D0,1D0,0D0,9.547172903354D1,0D0,0D0,-1D0,       67P     44
-5D0;                                                                 67P     45
100,0D0,0D0,0D0,6D0,0D0,-6D0,0D0;                                     69P     46
110,-6D0,8.147172903354D1,-5D0,-6D0,9.547172903354D1,-5D0;            71P     47
124,1D0,0D0,0D0,0D0,0D0,-1D0,0D0,8.147172903354D1,0D0,0D0,-1D0,       73P     48
-5D0;                                                                 73P     49
100,0D0,0D0,0D0,6D0,0D0,-6D0,0D0;                                     75P     50
110,6D0,9.547172903354D1,-5D0,6D0,8.147172903354D1,-5D0;              77P     51
110,0D0,9.397172903354D1,0D0,0D0,9.397172903354D1,-5D0;               79P     52
110,0D0,9.697172903354D1,0D0,0D0,9.697172903354D1,-5D0;               81P     53
110,-6D0,9.547172903354D1,0D0,-6D0,9.547172903354D1,-5D0;             83P     54
110,-6D0,8.147172903354D1,0D0,-6D0,8.147172903354D1,-5D0;             85P     55
110,6D0,8.147172903354D1,0D0,6D0,8.147172903354D1,-5D0;               87P     56
110,6D0,9.547172903354D1,0D0,6D0,9.547172903354D1,-5D0;               89P     57
502,16,0D0,7.997172903354D1,0D0,0D0,8.297172903354D1,0D0,0D0,         91P     58
9.397172903354D1,0D0,0D0,9.697172903354D1,0D0,-6D0,                   91P     59
9.547172903354D1,0D0,6D0,9.547172903354D1,0D0,6D0,                    91P     60
8.147172903354D1,0D0,-6D0,8.147172903354D1,0D0,0D0,                   91P     61
7.997172903354D1,-5D0,0D0,8.297172903354D1,-5D0,0D0,                  91P     62
9.397172903354D1,-5D0,0D0,9.697172903354D1,-5D0,-6D0,                 91P     63
9.547172903354D1,-5D0,6D0,9.547172903354D1,-5D0,6D0,                  91P     64
8.147172903354D1,-5D0,-6D0,8.147172903354D1,-5D0;                     91P     65
504,24,21,91,1,91,2,25,91,2,91,1,29,91,3,91,4,33,91,4,91,3,37,        93P     66
91,5,91,6,39,91,6,91,7,43,91,7,91,8,45,91,8,91,5,53,91,9,91,10,       93P     67
57,91,10,91,9,61,91,11,91,12,65,91,12,91,11,69,91,13,91,14,77,        93P     68
91,14,91,15,75,91,15,91,16,71,91,16,91,13,47,91,1,91,9,49,91,2,       93P     69
91,10,79,91,3,91,11,81,91,4,91,12,83,91,5,91,13,89,91,6,91,14,        93P     70
87,91,7,91,15,85,91,8,91,16;                                          93P     71
128,1,1,1,1,0,0,1,0,0,-1.019979810761D2,-1.019979810761D2,            95P     72
-7.494547699093D1,-7.494547699093D1,-6.24D0,-6.24D0,6.24D0,           95P     73
6.24D0,1D0,1D0,1D0,1D0,6.24D0,1.019979810761D2,0D0,6.24D0,            95P     74
7.494547699093D1,0D0,-6.24D0,1.019979810761D2,0D0,-6.24D0,            95P     75
7.494547699093D1,0D0,-1.019979810761D2,-7.494547699093D1,             95P     76
-6.24D0,6.24D0;                                                       95P     77
508,4,0,93,5,1,0,0,93,6,1,0,0,93,7,1,0,0,93,8,1,0;                    97P     78
508,2,0,93,1,1,0,0,93,2,1,0;                                          99P     79
508,2,0,93,3,1,0,0,93,4,1,0;                                         101P     80
510,95,3,0,97,99,101;                                                103P     81
110,0D0,8.147172903354D1,0D0,0D0,8.147172903354D1,-1D0;              105P     82
110,0D0,7.997172903354D1,1D-1,0D0,7.997172903354D1,-5.1D0;           107P     83
120,105,107,3.078760800518D0,6.346017160251D0;                       109P     84
508,4,0,93,1,0,0,0,93,17,1,0,0,93,9,1,0,0,93,18,0,0;                 111P     85
510,109,1,0,111;                                                     113P     86
110,0D0,8.147172903354D1,0D0,0D0,8.147172903354D1,-1D0;              115P     87
110,0D0,7.997172903354D1,1D-1,0D0,7.997172903354D1,-5.1D0;           117P     88
120,115,117,-6.283185307180D-2,3.204424506662D0;                     119P     89
508,4,0,93,2,0,0,0,93,18,1,0,0,93,10,1,0,0,93,17,0,0;                121P     90
510,119,1,0,121;                                                     123P     91
128,1,1,1,1,0,0,1,0,0,-1.019979810761D2,-1.019979810761D2,           125P     92
-7.494547699093D1,-7.494547699093D1,-6.24D0,-6.24D0,6.24D0,          125P     93
6.24D0,1D0,1D0,1D0,1D0,6.24D0,1.019979810761D2,-5D0,6.24D0,          125P     94
7.494547699093D1,-5D0,-6.24D0,1.019979810761D2,-5D0,-6.24D0,         125P     95
7.494547699093D1,-5D0,-1.019979810761D2,-7.494547699093D1,           125P     96
-6.24D0,6.24D0;                                                      125P     97
508,4,0,93,13,0,0,0,93,16,0,0,0,93,15,0,0,0,93,14,0,0;               127P     98
508,2,0,93,9,0,0,0,93,10,0,0;                                        129P     99
508,2,0,93,11,0,0,0,93,12,0,0;                                       131P    100
510,125,3,0,127,129,131;                                             133P    101
110,0D0,9.547172903354D1,0D0,0D0,9.547172903354D1,-1D0;              135P    102
110,0D0,9.397172903354D1,1D-1,0D0,9.397172903354D1,-5.1D0;           137P    103
120,135,137,3.078760800518D0,6.346017160251D0;                       139P    104
508,4,0,93,3,0,0,0,93,19,1,0,0,93,11,1,0,0,93,20,0,0;                141P    105
510,139,1,0,141;                                                     143P    106
110,0D0,9.547172903354D1,0D0,0D0,9.547172903354D1,-1D0;              145P    107
110,0D0,9.397172903354D1,1D-1,0D0,9.397172903354D1,-5.1D0;           147P    108
120,145,147,-6.283185307180D-2,3.204424506662D0;                     149P    109
508,4,0,93,4,0,0,0,93,20,1,0,0,93,12,1,0,0,93,19,0,0;                151P    110
510,149,1,0,151;                                                     153P    111
110,0D0,9.547172903354D1,0D0,0D0,9.547172903354D1,-1D0;              155P    112
110,0D0,8.947172903354D1,1D-1,0D0,8.947172903354D1,-5.1D0;           157P    113
120,155,157,1.507964473723D0,4.775220833456D0;                       159P    114
508,4,0,93,5,0,0,0,93,21,1,0,0,93,13,1,0,0,93,22,0,0;                161P    115
510,159,1,0,161;                                                     163P    116
128,1,1,1,1,0,0,1,0,0,-2.8D-1,-2.8D-1,1.428D1,1.428D1,-1D-1,         165P    117
-1D-1,5.1D0,5.1D0,1D0,1D0,1D0,1D0,-6D0,8.119172903354D1,1D-1,        165P    118
-6D0,9.575172903354D1,1D-1,-6D0,8.119172903354D1,-5.1D0,-6D0,        165P    119
9.575172903354D1,-5.1D0,-2.8D-1,1.428D1,-1D-1,5.1D0;                 165P    120
508,4,0,93,8,0,0,0,93,24,1,0,0,93,16,1,0,0,93,21,0,0;                167P    121
510,165,1,0,167;                                                     169P    122
110,0D0,8.147172903354D1,0D0,0D0,8.147172903354D1,-1D0;              171P    123
110,0D0,7.547172903354D1,1D-1,0D0,7.547172903354D1,-5.1D0;           173P    124
120,171,173,4.649557127313D0,7.916813487046D0;                       175P    125
508,4,0,93,7,0,0,0,93,23,1,0,0,93,15,1,0,0,93,24,0,0;                177P    126
510,175,1,0,177;                                                     179P    127
128,1,1,1,1,0,0,1,0,0,-2.8D-1,-2.8D-1,1.428D1,1.428D1,-1D-1,         181P    128
-1D-1,5.1D0,5.1D0,1D0,1D0,1D0,1D0,6D0,9.575172903354D1,1D-1,6D0,     181P    129
8.119172903354D1,1D-1,6D0,9.575172903354D1,-5.1D0,6D0,               181P    130
8.119172903354D1,-5.1D0,-2.8D-1,1.428D1,-1D-1,5.1D0;                 181P    131
508,4,0,93,6,0,0,0,93,22,1,0,0,93,14,1,0,0,93,23,0,0;                183P    132
510,181,1,0,183;                                                     185P    133
514,10,103,0,113,0,123,0,133,1,143,0,153,0,163,1,169,1,179,1,        187P    134
185,1;                                                               187P    135
186,187,1,0;                                                         189P    136
S      1G      4D    190P    136                                        T      1
