 PTC IGES file: g-16a.igs                                               S      1
1H,,1H;,5HG-16A,9Hg-16a.igs,                                            G      1
49HPro/ENGINEER by Parametric Technology Corporation,7H2004110,32,38,7, G      2
38,15,5HG-16A,1.,2,2HMM,32768,0.5,13H080428.081003,0.00165523,16.5529,  G      3
10Hliuxiaokun,7HUnknown,10,0,13H080428.081003;                          G      4
     314       1       1       1       0       0       0       001000200D      1
     314       0       4       1       0                   COLOR       1D      2
     314       2       1       1       0       0       0       001000200D      3
     314       0       1       1       0                   COLOR       2D      4
     314       3       1       1       0       0       0       001000200D      5
     314       0       3       1       0                   COLOR       3D      6
     314       4       1       1       0       0       0       001000200D      7
     314       0       1       1       0                   COLOR       4D      8
     314       5       1       1       0       0       0       001000200D      9
     314       0       1       1       0                   COLOR       5D     10
     314       6       1       1       0       0       0       001000200D     11
     314       0       8       1       0                   COLOR       6D     12
     314       7       1       1       0       0       0       001000200D     13
     314       0       8       1       0                   COLOR       7D     14
     314       8       1       1       0       0       0       001000200D     15
     314       0       5       1       0                   COLOR       8D     16
     314       9       1       1       0       0       0       001000200D     17
     314       0       8       1       0                   COLOR       9D     18
     124      10       1       1       0       0       0       001000000D     19
     124       0       0       1       0                   XFORM       1D     20
     100      11       1       1       0       0      19       001010000D     21
     100       0      -5       1       0                     ARC       1D     22
     124      12       1       1       0       0       0       001000000D     23
     124       0       0       1       0                   XFORM       2D     24
     100      13       1       1       0       0      23       001010000D     25
     100       0      -5       1       0                     ARC       2D     26
     110      14       1       1       0       0       0       001010000D     27
     110       0      -5       1       0                    LINE       1D     28
     110      15       1       1       0       0       0       001010000D     29
     110       0      -5       1       0                    LINE       2D     30
     124      16       1       1       0       0       0       001000000D     31
     124       0       0       1       0                   XFORM       3D     32
     100      17       1       1       0       0      31       001010000D     33
     100       0      -5       1       0                     ARC       3D     34
     124      18       1       1       0       0       0       001000000D     35
     124       0       0       1       0                   XFORM       4D     36
     100      19       1       1       0       0      35       001010000D     37
     100       0      -5       1       0                     ARC       4D     38
     502      20       1       1       0       0       0       001010000D     39
     502       0      -5       2       1                  VERTEX       1D     40
     504      22       1       1       0       0       0       000010001D     41
     504       0      -5       2       1                    EDGE       1D     42
     128      24       1       1       0       0       0       001010000D     43
     128       0      -5       4       0                  SPLSRF       1D     44
     508      28       1       1       0       0       0       001010000D     45
     508       0       0       1       1                EDGELOOP       1D     46
     510      29       1       1       0       0       0       000010000D     47
     510       0      -5       1       1                    FACE       1D     48
     110      30       1       1       0       0       0       001010000D     49
     110       0      -5       1       0                    LINE       3D     50
     110      31       1       1       0       0       0       001010000D     51
     110       0      -5       1       0                    LINE       4D     52
     120      32       1       1       0       0       0       001010000D     53
     120       0      -5       1       0                    SREV       1D     54
     508      33       1       1       0       0       0       001010000D     55
     508       0       0       1       1                EDGELOOP       2D     56
     510      34       1       1       0       0       0       000010000D     57
     510       0      -5       1       1                    FACE       2D     58
     110      35       1       1       0       0       0       001010000D     59
     110       0      -5       1       0                    LINE       5D     60
     110      36       1       1       0       0       0       001010000D     61
     110       0      -5       1       0                    LINE       6D     62
     120      37       1       1       0       0       0       001010000D     63
     120       0      -5       1       0                    SREV       2D     64
     508      38       1       1       0       0       0       001010000D     65
     508       0       0       1       1                EDGELOOP       3D     66
     510      39       1       1       0       0       0       000010000D     67
     510       0      -5       1       1                    FACE       3D     68
     128      40       1       1       0       0       0       001010000D     69
     128       0      -5       4       0                  SPLSRF       2D     70
     508      44       1       1       0       0       0       001010000D     71
     508       0       0       1       1                EDGELOOP       4D     72
     510      45       1       1       0       0       0       000010000D     73
     510       0      -5       1       1                    FACE       4D     74
     514      46       1       1       0       0       0       000000000D     75
     514       0      -5       1       1                   SHELL       1D     76
     186      47       1       1       0       0       0       000000000D     77
     186       0      -5       1       0                    MSBR       1D     78
314,1.1D0,1.2D0,1D2;                                                   1P      1
314,1.1D1,1.1D1,1.1D1;                                                 3P      2
314,2.588167590481D1,1D2,1.515783475953D1;                             5P      3
314,3.92D1,1.2D0,1.2D0;                                                7P      4
314,4.1D1,0D0,2.2D1;                                                   9P      5
314,8.784D1,9.49D1,1D2;                                               11P      6
314,9.6D1,9.6D1,9.6D1;                                                13P      7
314,9.8D1,6.27D1,0D0;                                                 15P      8
314,1D2,1D2,9.49D1;                                                   17P      9
124,0D0,-1D0,0D0,0D0,-1D0,0D0,0D0,0D0,0D0,0D0,-1D0,0D0;               19P     10
100,0D0,0D0,0D0,1.5D0,0D0,-1.5D0,0D0;                                 21P     11
124,0D0,1D0,0D0,0D0,1D0,0D0,0D0,0D0,0D0,0D0,-1D0,0D0;                 23P     12
100,0D0,0D0,0D0,1.5D0,0D0,-1.5D0,0D0;                                 25P     13
110,0D0,-1.5D0,0D0,0D0,-1.5D0,1.6D1;                                  27P     14
110,0D0,1.5D0,0D0,0D0,1.5D0,1.6D1;                                    29P     15
124,0D0,-1D0,0D0,0D0,-1D0,0D0,0D0,0D0,0D0,0D0,-1D0,1.6D1;             31P     16
100,0D0,0D0,0D0,1.5D0,0D0,-1.5D0,0D0;                                 33P     17
124,0D0,1D0,0D0,0D0,1D0,0D0,0D0,0D0,0D0,0D0,-1D0,1.6D1;               35P     18
100,0D0,0D0,0D0,1.5D0,0D0,-1.5D0,0D0;                                 37P     19
502,4,0D0,-1.5D0,0D0,0D0,1.5D0,0D0,0D0,-1.5D0,1.6D1,0D0,1.5D0,        39P     20
1.6D1;                                                                39P     21
504,6,21,39,1,39,2,25,39,2,39,1,33,39,3,39,4,37,39,4,39,3,27,39,      41P     22
1,39,3,29,39,2,39,4;                                                  41P     23
128,1,1,1,1,0,0,1,0,0,-1.56D0,-1.56D0,1.56D0,1.56D0,-1.56D0,          43P     24
-1.56D0,1.56D0,1.56D0,1D0,1D0,1D0,1D0,1.56D0,1.56D0,0D0,1.56D0,       43P     25
-1.56D0,0D0,-1.56D0,1.56D0,0D0,-1.56D0,-1.56D0,0D0,-1.56D0,           43P     26
1.56D0,-1.56D0,1.56D0;                                                43P     27
508,2,0,41,1,0,0,0,41,2,0,0;                                          45P     28
510,43,1,0,45;                                                        47P     29
110,0D0,0D0,0D0,0D0,0D0,-1D0;                                         49P     30
110,0D0,-1.5D0,1.632D1,0D0,-1.5D0,-3.2D-1;                            51P     31
120,49,51,-6.283185307180D-2,3.204424506662D0;                        53P     32
508,4,0,41,1,1,0,0,41,6,1,0,0,41,3,0,0,0,41,5,0,0;                    55P     33
510,53,1,0,55;                                                        57P     34
110,0D0,0D0,0D0,0D0,0D0,-1D0;                                         59P     35
110,0D0,-1.5D0,1.632D1,0D0,-1.5D0,-3.2D-1;                            61P     36
120,59,61,3.078760800518D0,6.346017160251D0;                          63P     37
508,4,0,41,2,1,0,0,41,5,1,0,0,41,4,0,0,0,41,6,0,0;                    65P     38
510,63,1,0,65;                                                        67P     39
128,1,1,1,1,0,0,1,0,0,-1.56D0,-1.56D0,1.56D0,1.56D0,-1.56D0,          69P     40
-1.56D0,1.56D0,1.56D0,1D0,1D0,1D0,1D0,1.56D0,1.56D0,1.6D1,            69P     41
1.56D0,-1.56D0,1.6D1,-1.56D0,1.56D0,1.6D1,-1.56D0,-1.56D0,1.6D1,      69P     42
-1.56D0,1.56D0,-1.56D0,1.56D0;                                        69P     43
508,2,0,41,3,1,0,0,41,4,1,0;                                          71P     44
510,69,1,0,71;                                                        73P     45
514,4,47,1,57,1,67,1,73,0;                                            75P     46
186,75,1,0;                                                           77P     47
S      1G      4D     78P     47                                        T      1
