 PTC IGES file: az-006_2_mir.igs                                        S      1
1H,,1H;,12HAZ-006_2_MIR,16Haz-006_2_mir.igs,                            G      1
49HPro/ENGINEER by Parametric Technology Corporation,7H2004110,32,38,7, G      2
38,15,12HAZ-006_2_MIR,1.,2,2HMM,32768,0.5,13H080428.080958,0.00879283,  G      3
87.9318,10Hliuxiaokun,7HUnknown,10,0,13H080428.080958;                  G      4
     314       1       1       1       0       0       0       001000200D      1
     314       0       4       1       0                   COLOR       1D      2
     314       2       1       1       0       0       0       001000200D      3
     314       0       1       1       0                   COLOR       2D      4
     314       3       1       1       0       0       0       001000200D      5
     314       0       1       1       0                   COLOR       3D      6
     314       4       1       1       0       0       0       001000200D      7
     314       0       1       1       0                   COLOR       4D      8
     314       5       1       1       0       0       0       001000200D      9
     314       0       2       1       0                   COLOR       5D     10
     314       6       1       1       0       0       0       001000200D     11
     314       0       8       1       0                   COLOR       6D     12
     314       7       1       1       0       0       0       001000200D     13
     314       0       8       1       0                   COLOR       7D     14
     314       8       1       1       0       0       0       001000200D     15
     314       0       5       1       0                   COLOR       8D     16
     314       9       1       1       0       0       0       001000200D     17
     314       0       8       1       0                   COLOR       9D     18
     110      10       1       1       0       0       0       001010000D     19
     110       0      -9       1       0                    LINE       1D     20
     110      11       1       1       0       0       0       001010000D     21
     110       0      -9       1       0                    LINE       2D     22
     110      12       1       1       0       0       0       001010000D     23
     110       0      -9       1       0                    LINE       3D     24
     110      13       1       1       0       0       0       001010000D     25
     110       0      -9       1       0                    LINE       4D     26
     110      14       1       1       0       0       0       001010000D     27
     110       0      -9       1       0                    LINE       5D     28
     110      15       1       1       0       0       0       001010000D     29
     110       0      -9       1       0                    LINE       6D     30
     110      16       1       1       0       0       0       001010000D     31
     110       0      -9       1       0                    LINE       7D     32
     110      17       1       1       0       0       0       001010000D     33
     110       0      -9       1       0                    LINE       8D     34
     110      18       1       1       0       0       0       001010000D     35
     110       0      -9       1       0                    LINE       9D     36
     110      19       1       1       0       0       0       001010000D     37
     110       0      -9       1       0                    LINE      10D     38
     110      20       1       1       0       0       0       001010000D     39
     110       0      -9       1       0                    LINE      11D     40
     110      21       1       1       0       0       0       001010000D     41
     110       0      -9       1       0                    LINE      12D     42
     110      22       1       1       0       0       0       001010000D     43
     110       0      -9       1       0                    LINE      13D     44
     110      23       1       1       0       0       0       001010000D     45
     110       0      -9       1       0                    LINE      14D     46
     110      24       1       1       0       0       0       001010000D     47
     110       0      -9       1       0                    LINE      15D     48
     110      25       1       1       0       0       0       001010000D     49
     110       0      -9       1       0                    LINE      16D     50
     110      26       1       1       0       0       0       001010000D     51
     110       0      -9       1       0                    LINE      17D     52
     110      27       1       1       0       0       0       001010000D     53
     110       0      -9       1       0                    LINE      18D     54
     110      28       1       1       0       0       0       001010000D     55
     110       0      -9       1       0                    LINE      19D     56
     110      29       1       1       0       0       0       001010000D     57
     110       0      -9       1       0                    LINE      20D     58
     110      30       1       1       0       0       0       001010000D     59
     110       0      -9       1       0                    LINE      21D     60
     110      31       1       1       0       0       0       001010000D     61
     110       0      -9       1       0                    LINE      22D     62
     110      32       1       1       0       0       0       001010000D     63
     110       0      -9       1       0                    LINE      23D     64
     110      33       1       1       0       0       0       001010000D     65
     110       0      -9       1       0                    LINE      24D     66
     110      34       1       1       0       0       0       001010000D     67
     110       0      -9       1       0                    LINE      25D     68
     110      35       1       1       0       0       0       001010000D     69
     110       0      -9       1       0                    LINE      26D     70
     110      36       1       1       0       0       0       001010000D     71
     110       0      -9       1       0                    LINE      27D     72
     110      37       1       1       0       0       0       001010000D     73
     110       0      -9       1       0                    LINE      28D     74
     110      38       1       1       0       0       0       001010000D     75
     110       0      -9       1       0                    LINE      29D     76
     110      39       1       1       0       0       0       001010000D     77
     110       0      -9       1       0                    LINE      30D     78
     110      40       1       1       0       0       0       001010000D     79
     110       0      -9       1       0                    LINE      31D     80
     110      41       1       1       0       0       0       001010000D     81
     110       0      -9       1       0                    LINE      32D     82
     110      42       1       1       0       0       0       001010000D     83
     110       0      -9       1       0                    LINE      33D     84
     110      43       1       1       0       0       0       001010000D     85
     110       0      -9       1       0                    LINE      34D     86
     502      44       1       1       0       0       0       001010000D     87
     502       0      -9       6       1                  VERTEX       1D     88
     504      50       1       1       0       0       0       000010001D     89
     504       0      -9       8       1                    EDGE       1D     90
     128      58       1       1       0       0       0       001010000D     91
     128       0      -9       3       0                  SPLSRF       1D     92
     508      61       1       1       0       0       0       001010000D     93
     508       0       0       1       1                EDGELOOP       1D     94
     510      62       1       1       0       0       0       000010000D     95
     510       0      -9       1       1                    FACE       1D     96
     128      63       1       1       0       0       0       001010000D     97
     128       0      -9       4       0                  SPLSRF       2D     98
     508      67       1       1       0       0       0       001010000D     99
     508       0       0       1       1                EDGELOOP       2D    100
     510      68       1       1       0       0       0       000010000D    101
     510       0      -9       1       1                    FACE       2D    102
     128      69       1       1       0       0       0       001010000D    103
     128       0      -9       4       0                  SPLSRF       3D    104
     508      73       1       1       0       0       0       001010000D    105
     508       0       0       2       1                EDGELOOP       3D    106
     510      75       1       1       0       0       0       000010000D    107
     510       0      -9       1       1                    FACE       3D    108
     128      76       1       1       0       0       0       001010000D    109
     128       0      -9       6       0                  SPLSRF       4D    110
     508      82       1       1       0       0       0       001010000D    111
     508       0       0       1       1                EDGELOOP       4D    112
     510      83       1       1       0       0       0       000010000D    113
     510       0      -9       1       1                    FACE       4D    114
     128      84       1       1       0       0       0       001010000D    115
     128       0      -9       5       0                  SPLSRF       5D    116
     508      89       1       1       0       0       0       001010000D    117
     508       0       0       2       1                EDGELOOP       5D    118
     510      91       1       1       0       0       0       000010000D    119
     510       0      -9       1       1                    FACE       5D    120
     128      92       1       1       0       0       0       001010000D    121
     128       0      -9       6       0                  SPLSRF       6D    122
     508      98       1       1       0       0       0       001010000D    123
     508       0       0       1       1                EDGELOOP       6D    124
     510      99       1       1       0       0       0       000010000D    125
     510       0      -9       1       1                    FACE       6D    126
     128     100       1       1       0       0       0       001010000D    127
     128       0      -9       4       0                  SPLSRF       7D    128
     508     104       1       1       0       0       0       001010000D    129
     508       0       0       2       1                EDGELOOP       7D    130
     510     106       1       1       0       0       0       000010000D    131
     510       0      -9       1       1                    FACE       7D    132
     128     107       1       1       0       0       0       001010000D    133
     128       0      -9       4       0                  SPLSRF       8D    134
     508     111       1       1       0       0       0       001010000D    135
     508       0       0       2       1                EDGELOOP       8D    136
     510     113       1       1       0       0       0       000010000D    137
     510       0      -9       1       1                    FACE       8D    138
     128     114       1       1       0       0       0       001010000D    139
     128       0      -9       6       0                  SPLSRF       9D    140
     508     120       1       1       0       0       0       001010000D    141
     508       0       0       1       1                EDGELOOP       9D    142
     510     121       1       1       0       0       0       000010000D    143
     510       0      -9       1       1                    FACE       9D    144
     128     122       1       1       0       0       0       001010000D    145
     128       0      -9       6       0                  SPLSRF      10D    146
     508     128       1       1       0       0       0       001010000D    147
     508       0       0       1       1                EDGELOOP      10D    148
     510     129       1       1       0       0       0       000010000D    149
     510       0      -9       1       1                    FACE      10D    150
     128     130       1       1       0       0       0       001010000D    151
     128       0      -9       6       0                  SPLSRF      11D    152
     508     136       1       1       0       0       0       001010000D    153
     508       0       0       1       1                EDGELOOP      11D    154
     510     137       1       1       0       0       0       000010000D    155
     510       0      -9       1       1                    FACE      11D    156
     128     138       1       1       0       0       0       001010000D    157
     128       0      -9       4       0                  SPLSRF      12D    158
     508     142       1       1       0       0       0       001010000D    159
     508       0       0       1       1                EDGELOOP      12D    160
     510     143       1       1       0       0       0       000010000D    161
     510       0      -9       1       1                    FACE      12D    162
     128     144       1       1       0       0       0       001010000D    163
     128       0      -9       6       0                  SPLSRF      13D    164
     508     150       1       1       0       0       0       001010000D    165
     508       0       0       1       1                EDGELOOP      13D    166
     510     151       1       1       0       0       0       000010000D    167
     510       0      -9       1       1                    FACE      13D    168
     128     152       1       1       0       0       0       001010000D    169
     128       0      -9       6       0                  SPLSRF      14D    170
     508     158       1       1       0       0       0       001010000D    171
     508       0       0       1       1                EDGELOOP      14D    172
     510     159       1       1       0       0       0       000010000D    173
     510       0      -9       1       1                    FACE      14D    174
     514     160       1       1       0       0       0       000000000D    175
     514       0      -9       2       1                   SHELL       1D    176
     186     162       1       1       0       0       0       000000000D    177
     186       0      -9       1       0                    MSBR       1D    178
314,1.1D0,1.2D0,1D2;                                                   1P      1
314,1.1D1,1.1D1,1.1D1;                                                 3P      2
314,3.92D1,1.2D0,1.2D0;                                                5P      3
314,4.1D1,0D0,2.2D1;                                                   7P      4
314,7.68627D1,4.351369136474D1,1.586189751609D1;                       9P      5
314,8.784D1,9.49D1,1D2;                                               11P      6
314,9.6D1,9.6D1,9.6D1;                                                13P      7
314,9.8D1,6.27D1,0D0;                                                 15P      8
314,1D2,1D2,9.49D1;                                                   17P      9
110,0D0,3D1,0D0,0D0,0D0,0D0;                                          19P     10
110,3D1,3D1,0D0,0D0,3D1,0D0;                                          21P     11
110,3D1,0D0,0D0,3D1,3D1,0D0;                                          23P     12
110,0D0,0D0,0D0,3D1,0D0,0D0;                                          25P     13
110,0D0,3D1,0D0,0D0,3D1,-6D0;                                         27P     14
110,5.33D1,0D0,-6D0,5.33D1,0D0,-4D0;                                  29P     15
110,0D0,0D0,-6D0,5.33D1,0D0,-6D0;                                     31P     16
110,0D0,0D0,0D0,0D0,0D0,-6D0;                                         33P     17
110,5.33D1,0D0,-2D0,5.33D1,0D0,-4D0;                                  35P     18
110,5.33D1,0D0,-6D0,5.33D1,-1.5D1,-6D0;                               37P     19
110,6.4D1,-1.5D1,-4D0,6.4D1,4.5D1,-4D0;                               39P     20
110,5.33D1,0D0,-4D0,5.33D1,-1.5D1,-4D0;                               41P     21
110,0D0,3D1,-6D0,0D0,0D0,-6D0;                                        43P     22
110,6.4D1,4.5D1,-6D0,6.4D1,-1.5D1,-6D0;                               45P     23
110,5.33D1,3D1,-6D0,5.33D1,4.5D1,-6D0;                                47P     24
110,5.33D1,3D1,-6D0,5.33D1,3D1,-4D0;                                  49P     25
110,5.33D1,3D1,-2D0,5.33D1,3D1,-4D0;                                  51P     26
110,3D1,3D1,0D0,3D1,3D1,-2D0;                                         53P     27
110,5.33D1,3D1,-6D0,0D0,3D1,-6D0;                                     55P     28
110,5.33D1,3D1,-4D0,5.33D1,4.5D1,-4D0;                                57P     29
110,6.4D1,4.5D1,-6D0,6.4D1,4.5D1,-4D0;                                59P     30
110,6.4D1,4.5D1,-4D0,5.33D1,4.5D1,-4D0;                               61P     31
110,5.33D1,4.5D1,-4D0,5.33D1,4.5D1,-6D0;                              63P     32
110,5.33D1,4.5D1,-6D0,6.4D1,4.5D1,-6D0;                               65P     33
110,5.33D1,3D1,-4D0,5.33D1,0D0,-4D0;                                  67P     34
110,5.33D1,0D0,-2D0,5.33D1,3D1,-2D0;                                  69P     35
110,3D1,0D0,-2D0,5.33D1,0D0,-2D0;                                     71P     36
110,5.33D1,3D1,-2D0,3D1,3D1,-2D0;                                     73P     37
110,3D1,0D0,0D0,3D1,0D0,-2D0;                                         75P     38
110,3D1,0D0,-2D0,3D1,3D1,-2D0;                                        77P     39
110,5.33D1,-1.5D1,-4D0,6.4D1,-1.5D1,-4D0;                             79P     40
110,6.4D1,-1.5D1,-4D0,6.4D1,-1.5D1,-6D0;                              81P     41
110,6.4D1,-1.5D1,-6D0,5.33D1,-1.5D1,-6D0;                             83P     42
110,5.33D1,-1.5D1,-6D0,5.33D1,-1.5D1,-4D0;                            85P     43
502,22,0D0,3D1,0D0,0D0,0D0,0D0,3D1,0D0,0D0,3D1,3D1,0D0,0D0,3D1,       87P     44
-6D0,0D0,0D0,-6D0,3D1,0D0,-2D0,3D1,3D1,-2D0,5.33D1,0D0,-2D0,          87P     45
5.33D1,3D1,-2D0,5.33D1,-1.5D1,-4D0,6.4D1,-1.5D1,-4D0,6.4D1,           87P     46
-1.5D1,-6D0,5.33D1,-1.5D1,-6D0,5.33D1,0D0,-6D0,5.33D1,0D0,-4D0,       87P     47
6.4D1,4.5D1,-6D0,6.4D1,4.5D1,-4D0,5.33D1,4.5D1,-4D0,5.33D1,           87P     48
4.5D1,-6D0,5.33D1,3D1,-6D0,5.33D1,3D1,-4D0;                           87P     49
504,34,19,87,1,87,2,25,87,2,87,3,23,87,3,87,4,21,87,4,87,1,43,        89P     50
87,5,87,6,27,87,1,87,5,33,87,2,87,6,75,87,3,87,7,53,87,4,87,8,        89P     51
77,87,7,87,8,69,87,9,87,10,71,87,7,87,9,73,87,10,87,8,79,87,11,       89P     52
87,12,81,87,12,87,13,83,87,13,87,14,85,87,14,87,11,29,87,15,87,       89P     53
16,31,87,6,87,15,35,87,9,87,16,41,87,16,87,11,37,87,15,87,14,59,      89P     54
87,17,87,18,61,87,18,87,19,63,87,19,87,20,65,87,20,87,17,49,87,       89P     55
21,87,22,55,87,21,87,5,51,87,10,87,22,67,87,22,87,16,57,87,22,        89P     56
87,19,47,87,21,87,20,39,87,12,87,18,45,87,17,87,13;                   89P     57
128,1,1,1,1,0,0,1,0,0,-6D-1,-6D-1,3.06D1,3.06D1,-6D-1,-6D-1,          91P     58
3.06D1,3.06D1,1D0,1D0,1D0,1D0,-6D-1,-6D-1,0D0,3.06D1,-6D-1,0D0,       91P     59
-6D-1,3.06D1,0D0,3.06D1,3.06D1,0D0,-6D-1,3.06D1,-6D-1,3.06D1;         91P     60
508,4,0,89,1,0,0,0,89,4,0,0,0,89,3,0,0,0,89,2,0,0;                    93P     61
510,91,1,0,93;                                                        95P     62
128,1,1,1,1,0,0,1,0,0,-6D-1,-6D-1,3.06D1,3.06D1,-1.2D-1,-1.2D-1,      97P     63
6.12D0,6.12D0,1D0,1D0,1D0,1D0,0D0,3.06D1,1.2D-1,0D0,-6D-1,            97P     64
1.2D-1,0D0,3.06D1,-6.12D0,0D0,-6D-1,-6.12D0,-6D-1,3.06D1,             97P     65
-1.2D-1,6.12D0;                                                       97P     66
508,4,0,89,1,1,0,0,89,7,1,0,0,89,5,0,0,0,89,6,0,0;                    99P     67
510,97,1,0,99;                                                       101P     68
128,1,1,1,1,0,0,1,0,0,-1.066D0,-1.066D0,5.4366D1,5.4366D1,           103P     69
-1.2D-1,-1.2D-1,6.12D0,6.12D0,1D0,1D0,1D0,1D0,-1.066D0,0D0,          103P     70
1.2D-1,5.4366D1,0D0,1.2D-1,-1.066D0,0D0,-6.12D0,5.4366D1,0D0,        103P     71
-6.12D0,-1.066D0,5.4366D1,-1.2D-1,6.12D0;                            103P     72
508,7,0,89,18,0,0,0,89,19,0,0,0,89,7,0,0,0,89,2,1,0,0,89,8,1,0,      105P     73
0,89,12,1,0,0,89,20,1,0;                                             105P     74
510,103,1,0,105;                                                     107P     75
128,1,1,1,1,0,0,1,0,0,-1.055181500975D-1,-1.055181500975D-1,         109P     76
2.105518150098D0,2.105518150098D0,-3D-1,-3D-1,1.53D1,1.53D1,1D0,     109P     77
1D0,1D0,1D0,5.33D1,3D-1,-6.105518150098D0,5.33D1,3D-1,               109P     78
-3.894481849902D0,5.33D1,-1.53D1,-6.105518150098D0,5.33D1,           109P     79
-1.53D1,-3.894481849902D0,-1.055181500975D-1,2.105518150098D0,       109P     80
-3D-1,1.53D1;                                                        109P     81
508,4,0,89,18,1,0,0,89,21,1,0,0,89,17,0,0,0,89,22,0,0;               111P     82
510,109,1,0,111;                                                     113P     83
128,1,1,1,1,0,0,1,0,0,-1.528696493545D1,-1.528696493545D1,           115P     84
4.711303506455D1,4.711303506455D1,-1.0914D1,-1.0914D1,2.14D-1,       115P     85
2.14D-1,1D0,1D0,1D0,1D0,5.3086D1,4.62D1,-4D0,5.3086D1,-1.62D1,       115P     86
-4D0,6.4214D1,4.62D1,-4D0,6.4214D1,-1.62D1,-4D0,                     115P     87
-1.528696493545D1,4.711303506455D1,-1.0914D1,2.14D-1;                115P     88
508,6,0,89,33,0,0,0,89,14,0,0,0,89,21,0,0,0,89,30,0,0,0,89,31,1,     117P     89
0,0,89,24,0,0;                                                       117P     90
510,115,1,0,117;                                                     119P     91
128,1,1,1,1,0,0,1,0,0,-1.62D1,-1.62D1,4.62D1,4.62D1,                 121P     92
-2.105518150098D0,-2.105518150098D0,1.055181500975D-1,               121P     93
1.055181500975D-1,1D0,1D0,1D0,1D0,6.4D1,-1.62D1,                     121P     94
-3.894481849902D0,6.4D1,4.62D1,-3.894481849902D0,6.4D1,-1.62D1,      121P     95
-6.105518150098D0,6.4D1,4.62D1,-6.105518150098D0,-1.62D1,4.62D1,     121P     96
-2.105518150098D0,1.055181500975D-1;                                 121P     97
508,4,0,89,34,1,0,0,89,15,0,0,0,89,33,1,0,0,89,23,0,0;               123P     98
510,121,1,0,123;                                                     125P     99
128,1,1,1,1,0,0,1,0,0,-1.28D0,-1.28D0,6.528D1,6.528D1,-1.62D1,       127P    100
-1.62D1,4.62D1,4.62D1,1D0,1D0,1D0,1D0,-1.28D0,-1.62D1,-6D0,          127P    101
6.528D1,-1.62D1,-6D0,-1.28D0,4.62D1,-6D0,6.528D1,4.62D1,-6D0,        127P    102
-1.28D0,6.528D1,-1.62D1,4.62D1;                                      127P    103
508,8,0,89,28,1,0,0,89,5,1,0,0,89,19,1,0,0,89,22,1,0,0,89,16,0,      129P    104
0,0,89,34,0,0,0,89,26,0,0,0,89,32,0,0;                               129P    105
510,127,1,0,129;                                                     131P    106
128,1,1,1,1,0,0,1,0,0,-2.4366D1,-2.4366D1,3.1066D1,3.1066D1,         133P    107
-1.2D-1,-1.2D-1,6.12D0,6.12D0,1D0,1D0,1D0,1D0,5.4366D1,3D1,          133P    108
1.2D-1,-1.066D0,3D1,1.2D-1,5.4366D1,3D1,-6.12D0,-1.066D0,3D1,        133P    109
-6.12D0,-2.4366D1,3.1066D1,-1.2D-1,6.12D0;                           133P    110
508,7,0,89,27,1,0,0,89,29,0,0,0,89,13,1,0,0,89,9,0,0,0,89,4,1,0,     135P    111
0,89,6,1,0,0,89,28,0,0;                                              135P    112
510,133,1,0,135;                                                     137P    113
128,1,1,1,1,0,0,1,0,0,-1.055181500975D-1,-1.055181500975D-1,         139P    114
2.105518150098D0,2.105518150098D0,-3D-1,-3D-1,1.53D1,1.53D1,1D0,     139P    115
1D0,1D0,1D0,5.33D1,2.97D1,-3.894481849902D0,5.33D1,2.97D1,           139P    116
-6.105518150098D0,5.33D1,4.53D1,-3.894481849902D0,5.33D1,4.53D1,     139P    117
-6.105518150098D0,-1.055181500975D-1,2.105518150098D0,-3D-1,         139P    118
1.53D1;                                                              139P    119
508,4,0,89,27,0,0,0,89,32,1,0,0,89,25,0,0,0,89,31,0,0;               141P    120
510,139,1,0,141;                                                     143P    121
128,1,1,1,1,0,0,1,0,0,-6.4214D1,-6.4214D1,-5.3086D1,-5.3086D1,       145P    122
3.894481849902D0,3.894481849902D0,6.105518150098D0,                  145P    123
6.105518150098D0,1D0,1D0,1D0,1D0,6.4214D1,4.5D1,                     145P    124
-3.894481849902D0,5.3086D1,4.5D1,-3.894481849902D0,6.4214D1,         145P    125
4.5D1,-6.105518150098D0,5.3086D1,4.5D1,-6.105518150098D0,            145P    126
-6.4214D1,-5.3086D1,3.894481849902D0,6.105518150098D0;               145P    127
508,4,0,89,23,1,0,0,89,24,1,0,0,89,25,1,0,0,89,26,1,0;               147P    128
510,145,1,0,147;                                                     149P    129
128,1,1,1,1,0,0,1,0,0,-6D-1,-6D-1,3.06D1,3.06D1,                     151P    130
-1.055181500975D-1,-1.055181500975D-1,2.105518150098D0,              151P    131
2.105518150098D0,1D0,1D0,1D0,1D0,5.33D1,-6D-1,-1.894481849902D0,     151P    132
5.33D1,3.06D1,-1.894481849902D0,5.33D1,-6D-1,-4.105518150098D0,      151P    133
5.33D1,3.06D1,-4.105518150098D0,-6D-1,3.06D1,-1.055181500975D-1,     151P    134
2.105518150098D0;                                                    151P    135
508,4,0,89,29,1,0,0,89,30,1,0,0,89,20,0,0,0,89,11,1,0;               153P    136
510,151,1,0,153;                                                     155P    137
128,1,1,1,1,0,0,1,0,0,2.9534D1,2.9534D1,5.3766D1,5.3766D1,-6D-1,     157P    138
-6D-1,3.06D1,3.06D1,1D0,1D0,1D0,1D0,2.9534D1,-6D-1,-2D0,             157P    139
5.3766D1,-6D-1,-2D0,2.9534D1,3.06D1,-2D0,5.3766D1,3.06D1,-2D0,       157P    140
2.9534D1,5.3766D1,-6D-1,3.06D1;                                      157P    141
508,4,0,89,11,0,0,0,89,12,0,0,0,89,10,1,0,0,89,13,0,0;               159P    142
510,157,1,0,159;                                                     161P    143
128,1,1,1,1,0,0,1,0,0,-6D-1,-6D-1,3.06D1,3.06D1,                     163P    144
-1.055181500975D-1,-1.055181500975D-1,2.105518150098D0,              163P    145
2.105518150098D0,1D0,1D0,1D0,1D0,3D1,-6D-1,1.055181500975D-1,        163P    146
3D1,3.06D1,1.055181500975D-1,3D1,-6D-1,-2.105518150098D0,3D1,        163P    147
3.06D1,-2.105518150098D0,-6D-1,3.06D1,-1.055181500975D-1,            163P    148
2.105518150098D0;                                                    163P    149
508,4,0,89,8,0,0,0,89,3,1,0,0,89,9,1,0,0,89,10,0,0;                  165P    150
510,163,1,0,165;                                                     167P    151
128,1,1,1,1,0,0,1,0,0,5.3086D1,5.3086D1,6.4214D1,6.4214D1,           169P    152
3.894481849902D0,3.894481849902D0,6.105518150098D0,                  169P    153
6.105518150098D0,1D0,1D0,1D0,1D0,5.3086D1,-1.5D1,                    169P    154
-3.894481849902D0,6.4214D1,-1.5D1,-3.894481849902D0,5.3086D1,        169P    155
-1.5D1,-6.105518150098D0,6.4214D1,-1.5D1,-6.105518150098D0,          169P    156
5.3086D1,6.4214D1,3.894481849902D0,6.105518150098D0;                 169P    157
508,4,0,89,14,1,0,0,89,15,1,0,0,89,16,1,0,0,89,17,1,0;               171P    158
510,169,1,0,171;                                                     173P    159
514,14,95,1,101,0,107,0,113,0,119,1,125,0,131,0,137,0,143,0,149,     175P    160
0,155,0,161,1,167,0,173,0;                                           175P    161
186,175,1,0;                                                         177P    162
S      1G      4D    178P    162                                        T      1
