 PTC IGES file: 516001-kf40.igs                                         S      1
1H,,1H;,11H516001-KF40,15H516001-kf40.igs,                              G      1
49HPro/ENGINEER by Parametric Technology Corporation,7H2004110,32,38,7, G      2
38,15,11H516001-KF40,1.,2,2HMM,32768,0.5,13H080428.081004,0.00779456,   G      3
77.9488,10Hliuxiaokun,7HUnknown,10,0,13H080428.081004;                  G      4
     314       1       1       1       0       0       0       001000200D      1
     314       0       4       1       0                   COLOR       1D      2
     314       2       1       1       0       0       0       001000200D      3
     314       0       1       1       0                   COLOR       2D      4
     314       3       1       1       0       0       0       001000200D      5
     314       0       1       1       0                   COLOR       3D      6
     314       4       1       1       0       0       0       001000200D      7
     314       0       1       1       0                   COLOR       4D      8
     314       5       1       1       0       0       0       001000200D      9
     314       0       8       1       0                   COLOR       5D     10
     314       6       1       1       0       0       0       001000200D     11
     314       0       8       1       0                   COLOR       6D     12
     314       7       1       1       0       0       0       001000200D     13
     314       0       5       1       0                   COLOR       7D     14
     314       8       1       1       0       0       0       001000200D     15
     314       0       8       1       0                   COLOR       8D     16
     124       9       1       1       0       0       0       001000000D     17
     124       0       0       1       0                   XFORM       1D     18
     100      10       1       1       0       0      17       001010000D     19
     100       0       0       1       0                     ARC       1D     20
     124      11       1       1       0       0       0       001000000D     21
     124       0       0       1       0                   XFORM       2D     22
     100      12       1       1       0       0      21       001010000D     23
     100       0       0       1       0                     ARC       2D     24
     124      13       1       1       0       0       0       001000000D     25
     124       0       0       1       0                   XFORM       3D     26
     100      14       1       1       0       0      25       001010000D     27
     100       0       0       1       0                     ARC       3D     28
     110      15       1       1       0       0       0       001010000D     29
     110       0       0       1       0                    LINE       1D     30
     124      16       1       1       0       0       0       001000000D     31
     124       0       0       1       0                   XFORM       4D     32
     100      17       1       1       0       0      31       001010000D     33
     100       0       0       1       0                     ARC       4D     34
     110      18       1       1       0       0       0       001010000D     35
     110       0       0       1       0                    LINE       2D     36
     110      19       1       1       0       0       0       001010000D     37
     110       0       0       1       0                    LINE       3D     38
     110      20       1       1       0       0       0       001010000D     39
     110       0       0       1       0                    LINE       4D     40
     124      21       1       1       0       0       0       001000000D     41
     124       0       0       1       0                   XFORM       5D     42
     100      22       1       1       0       0      41       001010000D     43
     100       0       0       1       0                     ARC       5D     44
     124      23       1       1       0       0       0       001000000D     45
     124       0       0       1       0                   XFORM       6D     46
     100      24       1       1       0       0      45       001010000D     47
     100       0       0       1       0                     ARC       6D     48
     124      25       1       1       0       0       0       001000000D     49
     124       0       0       1       0                   XFORM       7D     50
     100      26       1       1       0       0      49       001010000D     51
     100       0       0       1       0                     ARC       7D     52
     124      27       1       1       0       0       0       001000000D     53
     124       0       0       1       0                   XFORM       8D     54
     100      28       1       1       0       0      53       001010000D     55
     100       0       0       1       0                     ARC       8D     56
     124      29       1       1       0       0       0       001000000D     57
     124       0       0       1       0                   XFORM       9D     58
     100      30       1       1       0       0      57       001010000D     59
     100       0       0       1       0                     ARC       9D     60
     124      31       1       1       0       0       0       001000000D     61
     124       0       0       1       0                   XFORM      10D     62
     100      32       1       1       0       0      61       001010000D     63
     100       0       0       1       0                     ARC      10D     64
     110      33       1       1       0       0       0       001010000D     65
     110       0       0       1       0                    LINE       5D     66
     110      34       1       1       0       0       0       001010000D     67
     110       0       0       1       0                    LINE       6D     68
     124      35       1       1       0       0       0       001000000D     69
     124       0       0       1       0                   XFORM      11D     70
     100      36       1       1       0       0      69       001010000D     71
     100       0       0       1       0                     ARC      11D     72
     124      37       1       1       0       0       0       001000000D     73
     124       0       0       1       0                   XFORM      12D     74
     100      38       1       1       0       0      73       001010000D     75
     100       0       0       1       0                     ARC      12D     76
     110      39       1       1       0       0       0       001010000D     77
     110       0       0       1       0                    LINE       7D     78
     124      40       1       1       0       0       0       001000000D     79
     124       0       0       1       0                   XFORM      13D     80
     100      41       1       1       0       0      79       001010000D     81
     100       0       0       1       0                     ARC      13D     82
     110      42       1       1       0       0       0       001010000D     83
     110       0       0       1       0                    LINE       8D     84
     124      43       1       1       0       0       0       001000000D     85
     124       0       0       1       0                   XFORM      14D     86
     100      44       1       1       0       0      85       001010000D     87
     100       0       0       1       0                     ARC      14D     88
     502      45       1       1       0       0       0       001010000D     89
     502       0       0       5       1                  VERTEX       1D     90
     504      50       1       1       0       0       0       000010001D     91
     504       0       0       5       1                    EDGE       1D     92
     128      55       1       1       0       0       0       001010000D     93
     128       0       0       7       0                  SPLSRF       1D     94
     508      62       1       1       0       0       0       001010000D     95
     508       0       0       1       1                EDGELOOP       1D     96
     510      63       1       1       0       0       0       000010000D     97
     510       0       0       1       1                    FACE       1D     98
     110      64       1       1       0       0       0       001010000D     99
     110       0       0       1       0                    LINE       9D    100
     110      65       1       1       0       0       0       001010000D    101
     110       0       0       1       0                    LINE      10D    102
     120      66       1       1       0       0       0       001010000D    103
     120       0       0       1       0                    SREV       1D    104
     508      67       1       1       0       0       0       001010000D    105
     508       0       0       1       1                EDGELOOP       2D    106
     510      68       1       1       0       0       0       000010000D    107
     510       0       0       1       1                    FACE       2D    108
     110      69       1       1       0       0       0       001010000D    109
     110       0       0       1       0                    LINE      11D    110
     110      70       1       1       0       0       0       001010000D    111
     110       0       0       1       0                    LINE      12D    112
     120      71       1       1       0       0       0       001010000D    113
     120       0       0       1       0                    SREV       2D    114
     508      72       1       1       0       0       0       001010000D    115
     508       0       0       1       1                EDGELOOP       3D    116
     510      73       1       1       0       0       0       000010000D    117
     510       0       0       1       1                    FACE       3D    118
     110      74       1       1       0       0       0       001010000D    119
     110       0       0       1       0                    LINE      13D    120
     110      75       1       1       0       0       0       001010000D    121
     110       0       0       1       0                    LINE      14D    122
     120      76       1       1       0       0       0       001010000D    123
     120       0       0       1       0                    SREV       3D    124
     508      77       1       1       0       0       0       001010000D    125
     508       0       0       1       1                EDGELOOP       4D    126
     510      78       1       1       0       0       0       000010000D    127
     510       0       0       1       1                    FACE       4D    128
     110      79       1       1       0       0       0       001010000D    129
     110       0       0       1       0                    LINE      15D    130
     110      80       1       1       0       0       0       001010000D    131
     110       0       0       1       0                    LINE      16D    132
     120      81       1       1       0       0       0       001010000D    133
     120       0       0       1       0                    SREV       4D    134
     508      82       1       1       0       0       0       001010000D    135
     508       0       0       1       1                EDGELOOP       5D    136
     510      83       1       1       0       0       0       000010000D    137
     510       0       0       1       1                    FACE       5D    138
     128      84       1       1       0       0       0       001010000D    139
     128       0       0       4       0                  SPLSRF       2D    140
     508      88       1       1       0       0       0       001010000D    141
     508       0       0       1       1                EDGELOOP       6D    142
     508      89       1       1       0       0       0       001010000D    143
     508       0       0       1       1                EDGELOOP       7D    144
     510      90       1       1       0       0       0       000010000D    145
     510       0       0       1       1                    FACE       6D    146
     128      91       1       1       0       0       0       001010000D    147
     128       0       0       4       0                  SPLSRF       3D    148
     508      95       1       1       0       0       0       001010000D    149
     508       0       0       1       1                EDGELOOP       8D    150
     510      96       1       1       0       0       0       000010000D    151
     510       0       0       1       1                    FACE       7D    152
     110      97       1       1       0       0       0       001010000D    153
     110       0       0       1       0                    LINE      17D    154
     110      98       1       1       0       0       0       001010000D    155
     110       0       0       1       0                    LINE      18D    156
     120      99       1       1       0       0       0       001010000D    157
     120       0       0       1       0                    SREV       5D    158
     508     100       1       1       0       0       0       001010000D    159
     508       0       0       1       1                EDGELOOP       9D    160
     510     101       1       1       0       0       0       000010000D    161
     510       0       0       1       1                    FACE       8D    162
     110     102       1       1       0       0       0       001010000D    163
     110       0       0       1       0                    LINE      19D    164
     110     103       1       1       0       0       0       001010000D    165
     110       0       0       1       0                    LINE      20D    166
     120     104       1       1       0       0       0       001010000D    167
     120       0       0       1       0                    SREV       6D    168
     508     105       1       1       0       0       0       001010000D    169
     508       0       0       1       1                EDGELOOP      10D    170
     510     106       1       1       0       0       0       000010000D    171
     510       0       0       1       1                    FACE       9D    172
     128     107       1       1       0       0       0       001010000D    173
     128       0       0       6       0                  SPLSRF       4D    174
     508     113       1       1       0       0       0       001010000D    175
     508       0       0       1       1                EDGELOOP      11D    176
     508     114       1       1       0       0       0       001010000D    177
     508       0       0       1       1                EDGELOOP      12D    178
     510     115       1       1       0       0       0       000010000D    179
     510       0       0       1       1                    FACE      10D    180
     110     116       1       1       0       0       0       001010000D    181
     110       0       0       1       0                    LINE      21D    182
     110     117       1       1       0       0       0       001010000D    183
     110       0       0       1       0                    LINE      22D    184
     120     118       1       1       0       0       0       001010000D    185
     120       0       0       1       0                    SREV       7D    186
     508     119       1       1       0       0       0       001010000D    187
     508       0       0       1       1                EDGELOOP      13D    188
     510     120       1       1       0       0       0       000010000D    189
     510       0       0       1       1                    FACE      11D    190
     110     121       1       1       0       0       0       001010000D    191
     110       0       0       1       0                    LINE      23D    192
     110     122       1       1       0       0       0       001010000D    193
     110       0       0       1       0                    LINE      24D    194
     120     123       1       1       0       0       0       001010000D    195
     120       0       0       1       0                    SREV       8D    196
     508     124       1       1       0       0       0       001010000D    197
     508       0       0       1       1                EDGELOOP      14D    198
     510     125       1       1       0       0       0       000010000D    199
     510       0       0       1       1                    FACE      12D    200
     514     126       1       1       0       0       0       000000000D    201
     514       0       0       2       1                   SHELL       1D    202
     186     128       1       1       0       0       0       000000000D    203
     186       0       0       1       0                    MSBR       1D    204
314,1.1D0,1.2D0,1D2;                                                   1P      1
314,1.1D1,1.1D1,1.1D1;                                                 3P      2
314,3.92D1,1.2D0,1.2D0;                                                5P      3
314,4.1D1,0D0,2.2D1;                                                   7P      4
314,8.784D1,9.49D1,1D2;                                                9P      5
314,9.6D1,9.6D1,9.6D1;                                                11P      6
314,9.8D1,6.27D1,0D0;                                                 13P      7
314,1D2,1D2,9.49D1;                                                   15P      8
124,1D0,0D0,0D0,0D0,0D0,-1D0,0D0,0D0,0D0,0D0,-1D0,0D0;                17P      9
100,0D0,0D0,0D0,1.966269330411D1,0D0,-1.966269330411D1,0D0;           19P     10
124,-1D0,0D0,0D0,0D0,0D0,1D0,0D0,0D0,0D0,0D0,-1D0,0D0;                21P     11
100,0D0,0D0,0D0,1.966269330411D1,0D0,-1.966269330411D1,0D0;           23P     12
124,-1D0,0D0,0D0,0D0,0D0,-1D0,0D0,0D0,0D0,0D0,1D0,2.1D0;              25P     13
100,0D0,0D0,0D0,2.75D1,0D0,-2.75D1,0D0;                               27P     14
110,1.966269330411D1,0D0,0D0,2.75D1,0D0,2.1D0;                        29P     15
124,1D0,0D0,0D0,0D0,0D0,1D0,0D0,0D0,0D0,0D0,1D0,2.1D0;                31P     16
100,0D0,0D0,0D0,2.75D1,0D0,-2.75D1,0D0;                               33P     17
110,-1.966269330411D1,0D0,0D0,-2.75D1,0D0,2.1D0;                      35P     18
110,2.75D1,0D0,2.1D0,2.75D1,0D0,5.1D0;                                37P     19
110,-2.75D1,0D0,2.1D0,-2.75D1,0D0,5.1D0;                              39P     20
124,1D0,0D0,0D0,0D0,0D0,1D0,0D0,0D0,0D0,0D0,1D0,5.1D0;                41P     21
100,0D0,0D0,0D0,2.75D1,0D0,-2.75D1,0D0;                               43P     22
124,-1D0,0D0,0D0,0D0,0D0,-1D0,0D0,0D0,0D0,0D0,1D0,5.1D0;              45P     23
100,0D0,0D0,0D0,2.75D1,0D0,-2.75D1,0D0;                               47P     24
124,0D0,1D0,0D0,0D0,-1D0,0D0,0D0,0D0,0D0,0D0,1D0,5.1D0;               49P     25
100,0D0,0D0,0D0,1.985D1,0D0,-1.985D1,0D0;                             51P     26
124,0D0,-1D0,0D0,0D0,1D0,0D0,0D0,0D0,0D0,0D0,1D0,5.1D0;               53P     27
100,0D0,0D0,0D0,1.985D1,0D0,-1.985D1,0D0;                             55P     28
124,0D0,1D0,0D0,0D0,-1D0,0D0,0D0,0D0,0D0,0D0,1D0,5.1D0;               57P     29
100,0D0,0D0,0D0,2.085D1,0D0,-2.085D1,0D0;                             59P     30
124,0D0,-1D0,0D0,0D0,1D0,0D0,0D0,0D0,0D0,0D0,1D0,5.1D0;               61P     31
100,0D0,0D0,0D0,2.085D1,0D0,-2.085D1,0D0;                             63P     32
110,0D0,-1.985D1,5.1D0,0D0,-1.985D1,2.1D0;                            65P     33
110,0D0,1.985D1,5.1D0,0D0,1.985D1,2.1D0;                              67P     34
124,0D0,1D0,0D0,0D0,-1D0,0D0,0D0,0D0,0D0,0D0,1D0,2.1D0;               69P     35
100,0D0,0D0,0D0,1.985D1,0D0,-1.985D1,0D0;                             71P     36
124,0D0,-1D0,0D0,0D0,-1D0,0D0,0D0,0D0,0D0,0D0,-1D0,2.1D0;             73P     37
100,0D0,0D0,0D0,1.985D1,0D0,-1.985D1,0D0;                             75P     38
110,0D0,2.085D1,2.1D0,0D0,2.085D1,5.1D0;                              77P     39
124,0D0,-1D0,0D0,0D0,-1D0,0D0,0D0,0D0,0D0,0D0,-1D0,2.1D0;             79P     40
100,0D0,0D0,0D0,2.085D1,0D0,-2.085D1,0D0;                             81P     41
110,0D0,-2.085D1,2.1D0,0D0,-2.085D1,5.1D0;                            83P     42
124,0D0,1D0,0D0,0D0,-1D0,0D0,0D0,0D0,0D0,0D0,1D0,2.1D0;               85P     43
100,0D0,0D0,0D0,2.085D1,0D0,-2.085D1,0D0;                             87P     44
502,14,2.75D1,0D0,5.1D0,-2.75D1,0D0,5.1D0,1.966269330411D1,0D0,       89P     45
0D0,-1.966269330411D1,0D0,0D0,2.75D1,0D0,2.1D0,-2.75D1,0D0,           89P     46
2.1D0,0D0,-1.985D1,2.1D0,0D0,1.985D1,2.1D0,0D0,-2.085D1,2.1D0,        89P     47
0D0,2.085D1,2.1D0,0D0,-1.985D1,5.1D0,0D0,1.985D1,5.1D0,0D0,           89P     48
-2.085D1,5.1D0,0D0,2.085D1,5.1D0;                                     89P     49
504,22,43,89,1,89,2,47,89,2,89,1,19,89,3,89,4,23,89,4,89,3,33,        91P     50
89,5,89,6,27,89,6,89,5,37,89,5,89,1,39,89,6,89,2,29,89,3,89,5,        91P     51
35,89,4,89,6,71,89,7,89,8,87,89,9,89,10,75,89,7,89,8,81,89,9,89,      91P     52
10,51,89,11,89,12,59,89,13,89,14,55,89,12,89,11,63,89,14,89,13,       91P     53
65,89,11,89,7,83,89,9,89,13,67,89,12,89,8,77,89,10,89,14;             91P     54
128,1,1,1,1,0,0,1,0,0,-2.044920103627D1,-2.044920103627D1,            93P     55
2.044920103627D1,2.044920103627D1,-2.046604358091D1,                  93P     56
-2.046604358091D1,2.046604358091D1,2.046604358091D1,1D0,1D0,1D0,      93P     57
1D0,-2.044920103627D1,-2.046604358091D1,0D0,2.044920103627D1,         93P     58
-2.046604358091D1,0D0,-2.044920103627D1,2.046604358091D1,0D0,         93P     59
2.044920103627D1,2.046604358091D1,0D0,-2.044920103627D1,              93P     60
2.044920103627D1,-2.046604358091D1,2.046604358091D1;                  93P     61
508,2,0,91,3,0,0,0,91,4,0,0;                                          95P     62
510,93,1,0,95;                                                        97P     63
110,0D0,0D0,-5.268602791856D0,0D0,0D0,-6.268602791856D0;              99P     64
110,2.765674613392D1,0D0,2.142D0,1.950594717019D1,0D0,-4.2D-2;       101P     65
120,99,101,-6.283185307180D-2,3.204424506662D0;                      103P     66
508,4,0,91,3,1,0,0,91,10,1,0,0,91,6,1,0,0,91,9,0,0;                  105P     67
510,103,1,0,105;                                                     107P     68
110,0D0,0D0,-5.268602791856D0,0D0,0D0,-6.268602791856D0;             109P     69
110,2.765674613392D1,0D0,2.142D0,1.950594717019D1,0D0,-4.2D-2;       111P     70
120,109,111,-3.204424506662D0,6.283185307180D-2;                     113P     71
508,4,0,91,4,1,0,0,91,9,1,0,0,91,5,1,0,0,91,10,0,0;                  115P     72
510,113,1,0,115;                                                     117P     73
110,0D0,0D0,0D0,0D0,0D0,1D0;                                         119P     74
110,2.75D1,0D0,2.006461481731D0,2.75D1,0D0,5.193538518269D0;         121P     75
120,119,121,-6.283185307180D-2,3.204424506662D0;                     123P     76
508,4,0,91,5,0,0,0,91,7,1,0,0,91,1,1,0,0,91,8,0,0;                   125P     77
510,123,1,0,125;                                                     127P     78
110,0D0,0D0,0D0,0D0,0D0,1D0;                                         129P     79
110,2.75D1,0D0,2.006461481731D0,2.75D1,0D0,5.193538518269D0;         131P     80
120,129,131,3.078760800518D0,6.346017160251D0;                       133P     81
508,4,0,91,6,0,0,0,91,8,1,0,0,91,2,1,0,0,91,7,0,0;                   135P     82
510,133,1,0,135;                                                     137P     83
128,1,1,1,1,0,0,1,0,0,-2.86D1,-2.86D1,2.86D1,2.86D1,-2.86D1,         139P     84
-2.86D1,2.86D1,2.86D1,1D0,1D0,1D0,1D0,-2.86D1,-2.86D1,5.1D0,         139P     85
2.86D1,-2.86D1,5.1D0,-2.86D1,2.86D1,5.1D0,2.86D1,2.86D1,5.1D0,       139P     86
-2.86D1,2.86D1,-2.86D1,2.86D1;                                       139P     87
508,2,0,91,1,0,0,0,91,2,0,0;                                         141P     88
508,2,0,91,16,1,0,0,91,18,1,0;                                       143P     89
510,139,2,0,141,143;                                                 145P     90
128,1,1,1,1,0,0,1,0,0,-2.86D1,-2.86D1,2.86D1,2.86D1,-2.86D1,         147P     91
-2.86D1,2.86D1,2.86D1,1D0,1D0,1D0,1D0,-2.86D1,-2.86D1,5.1D0,         147P     92
2.86D1,-2.86D1,5.1D0,-2.86D1,2.86D1,5.1D0,2.86D1,2.86D1,5.1D0,       147P     93
-2.86D1,2.86D1,-2.86D1,2.86D1;                                       147P     94
508,2,0,91,15,0,0,0,91,17,0,0;                                       149P     95
510,147,1,0,149;                                                     151P     96
110,0D0,0D0,1.95D0,0D0,0D0,2.95D0;                                   153P     97
110,0D0,-1.985D1,2.006461481731D0,0D0,-1.985D1,5.193538518269D0;     155P     98
120,153,155,-6.283185307180D-2,3.204424506662D0;                     157P     99
508,4,0,91,15,1,0,0,91,21,1,0,0,91,11,0,0,0,91,19,0,0;               159P    100
510,157,1,0,159;                                                     161P    101
110,0D0,0D0,1.95D0,0D0,0D0,2.95D0;                                   163P    102
110,0D0,-1.985D1,2.006461481731D0,0D0,-1.985D1,5.193538518269D0;     165P    103
120,163,165,-3.204424506662D0,6.283185307180D-2;                     167P    104
508,4,0,91,17,1,0,0,91,19,1,0,0,91,13,1,0,0,91,21,0,0;               169P    105
510,167,1,0,169;                                                     171P    106
128,1,1,1,1,0,0,1,0,0,-2.1684D1,-2.1684D1,2.1684D1,2.1684D1,         173P    107
-2.170185956025D1,-2.170185956025D1,2.170185956025D1,                173P    108
2.170185956025D1,1D0,1D0,1D0,1D0,-2.170185956025D1,2.1684D1,         173P    109
2.1D0,-2.170185956025D1,-2.1684D1,2.1D0,2.170185956025D1,            173P    110
2.1684D1,2.1D0,2.170185956025D1,-2.1684D1,2.1D0,-2.1684D1,           173P    111
2.1684D1,-2.170185956025D1,2.170185956025D1;                         173P    112
508,2,0,91,14,1,0,0,91,12,0,0;                                       175P    113
508,2,0,91,11,1,0,0,91,13,0,0;                                       177P    114
510,173,2,0,175,177;                                                 179P    115
110,0D0,0D0,1.95D0,0D0,0D0,2.95D0;                                   181P    116
110,0D0,-2.085D1,2.006461481731D0,0D0,-2.085D1,5.193538518269D0;     183P    117
120,181,183,-3.204424506662D0,6.283185307180D-2;                     185P    118
508,4,0,91,18,0,0,0,91,22,0,0,0,91,14,0,0,0,91,20,1,0;               187P    119
510,185,1,0,187;                                                     189P    120
110,0D0,0D0,1.95D0,0D0,0D0,2.95D0;                                   191P    121
110,0D0,-2.085D1,2.006461481731D0,0D0,-2.085D1,5.193538518269D0;     193P    122
120,191,193,-6.283185307180D-2,3.204424506662D0;                     195P    123
508,4,0,91,16,0,0,0,91,20,0,0,0,91,12,1,0,0,91,22,1,0;               197P    124
510,195,1,0,197;                                                     199P    125
514,12,97,0,107,1,117,1,127,1,137,1,145,1,151,1,161,1,171,1,179,     201P    126
1,189,0,199,0;                                                       201P    127
186,201,1,0;                                                         203P    128
S      1G      4D    204P    128                                        T      1
