ISO-10303-21;
HEADER;
FILE_DESCRIPTION(('CoCreate Modeling STEP Export'),'2;1');
FILE_NAME('connector_study.stp','2012-06-21T21:48:43',(''),(''),
'CoCreate Modeling STEP processor for AP214 (Solid Model)',
'CoCreate Modeling 16.00A  16-Aug-2008 (C) Parametric Technology GmbH',
'');
FILE_SCHEMA(('AUTOMOTIVE_DESIGN { 1 0 10303 214 1 1 1 1 }'));
ENDSEC;
DATA;
#10=CARTESIAN_POINT('',(0.,0.,0.));
#20=DIRECTION('',(0.,0.,1.));
#30=DIRECTION('',(1.,0.,-0.));
#40=AXIS2_PLACEMENT_3D('',#10,#20,#30);
#50=PLANE('',#40);
#60=CARTESIAN_POINT('',(51.578475,52.244395,0.));
#70=DIRECTION('',(0.,1.,0.));
#80=VECTOR('',#70,1.);
#90=LINE('',#60,#80);
#100=CARTESIAN_POINT('',(51.578475,52.244395,0.));
#110=VERTEX_POINT('',#100);
#120=CARTESIAN_POINT('',(51.578475,58.744395,0.));
#130=VERTEX_POINT('',#120);
#140=EDGE_CURVE('',#110,#130,#90,.T.);
#150=ORIENTED_EDGE('',*,*,#140,.T.);
#160=CARTESIAN_POINT('',(96.478475,52.244395,0.));
#170=DIRECTION('',(-1.,0.,0.));
#180=VECTOR('',#170,1.);
#190=LINE('',#160,#180);
#200=CARTESIAN_POINT('',(96.478475,52.244395,0.));
#210=VERTEX_POINT('',#200);
#220=EDGE_CURVE('',#210,#110,#190,.T.);
#230=ORIENTED_EDGE('',*,*,#220,.T.);
#240=CARTESIAN_POINT('',(96.478475,58.744395,0.));
#250=DIRECTION('',(0.,-1.,0.));
#260=VECTOR('',#250,1.);
#270=LINE('',#240,#260);
#280=CARTESIAN_POINT('',(96.478475,58.744395,0.));
#290=VERTEX_POINT('',#280);
#300=EDGE_CURVE('',#290,#210,#270,.T.);
#310=ORIENTED_EDGE('',*,*,#300,.T.);
#320=CARTESIAN_POINT('',(51.578475,58.744395,0.));
#330=DIRECTION('',(1.,0.,0.));
#340=VECTOR('',#330,1.);
#350=LINE('',#320,#340);
#360=EDGE_CURVE('',#130,#290,#350,.T.);
#370=ORIENTED_EDGE('',*,*,#360,.T.);
#380=EDGE_LOOP('',(#370,#310,#230,#150));
#390=FACE_OUTER_BOUND('',#380,.T.);
#400=ADVANCED_FACE('',(#390),#50,.F.);
#410=CARTESIAN_POINT('',(0.,0.,2.55));
#420=DIRECTION('',(0.,0.,1.));
#430=DIRECTION('',(1.,0.,-0.));
#440=AXIS2_PLACEMENT_3D('',#410,#420,#430);
#450=PLANE('',#440);
#460=CARTESIAN_POINT('',(51.578475,58.744395,2.55));
#470=DIRECTION('',(1.,0.,0.));
#480=VECTOR('',#470,1.);
#490=LINE('',#460,#480);
#500=CARTESIAN_POINT('',(51.578475,58.744395,2.55));
#510=VERTEX_POINT('',#500);
#520=CARTESIAN_POINT('',(96.478475,58.744395,2.55));
#530=VERTEX_POINT('',#520);
#540=EDGE_CURVE('',#510,#530,#490,.T.);
#550=ORIENTED_EDGE('',*,*,#540,.F.);
#560=CARTESIAN_POINT('',(96.478475,58.744395,2.55));
#570=DIRECTION('',(0.,-1.,0.));
#580=VECTOR('',#570,1.);
#590=LINE('',#560,#580);
#600=CARTESIAN_POINT('',(96.478475,52.244395,2.55));
#610=VERTEX_POINT('',#600);
#620=EDGE_CURVE('',#530,#610,#590,.T.);
#630=ORIENTED_EDGE('',*,*,#620,.F.);
#640=CARTESIAN_POINT('',(96.478475,52.244395,2.55));
#650=DIRECTION('',(-1.,0.,0.));
#660=VECTOR('',#650,1.);
#670=LINE('',#640,#660);
#680=CARTESIAN_POINT('',(51.578475,52.244395,2.55));
#690=VERTEX_POINT('',#680);
#700=EDGE_CURVE('',#610,#690,#670,.T.);
#710=ORIENTED_EDGE('',*,*,#700,.F.);
#720=CARTESIAN_POINT('',(51.578475,52.244395,2.55));
#730=DIRECTION('',(0.,1.,0.));
#740=VECTOR('',#730,1.);
#750=LINE('',#720,#740);
#760=EDGE_CURVE('',#690,#510,#750,.T.);
#770=ORIENTED_EDGE('',*,*,#760,.F.);
#780=EDGE_LOOP('',(#770,#710,#630,#550));
#790=FACE_OUTER_BOUND('',#780,.T.);
#800=ADVANCED_FACE('',(#790),#450,.T.);
#810=CARTESIAN_POINT('',(51.578475,58.744395,0.));
#820=DIRECTION('',(0.,1.,0.));
#830=DIRECTION('',(1.,-0.,0.));
#840=AXIS2_PLACEMENT_3D('',#810,#820,#830);
#850=PLANE('',#840);
#860=CARTESIAN_POINT('',(96.478475,58.744395,0.));
#870=DIRECTION('',(0.,0.,1.));
#880=VECTOR('',#870,1.);
#890=LINE('',#860,#880);
#900=EDGE_CURVE('',#290,#530,#890,.T.);
#910=ORIENTED_EDGE('',*,*,#900,.F.);
#920=ORIENTED_EDGE('',*,*,#540,.T.);
#930=CARTESIAN_POINT('',(51.578475,58.744395,0.));
#940=DIRECTION('',(0.,0.,1.));
#950=VECTOR('',#940,1.);
#960=LINE('',#930,#950);
#970=EDGE_CURVE('',#130,#510,#960,.T.);
#980=ORIENTED_EDGE('',*,*,#970,.T.);
#990=ORIENTED_EDGE('',*,*,#360,.F.);
#1000=EDGE_LOOP('',(#990,#980,#920,#910));
#1010=FACE_OUTER_BOUND('',#1000,.T.);
#1020=ADVANCED_FACE('',(#1010),#850,.T.);
#1030=CARTESIAN_POINT('',(51.578475,52.244395,0.));
#1040=DIRECTION('',(-1.,0.,0.));
#1050=DIRECTION('',(0.,1.,0.));
#1060=AXIS2_PLACEMENT_3D('',#1030,#1040,#1050);
#1070=PLANE('',#1060);
#1080=ORIENTED_EDGE('',*,*,#970,.F.);
#1090=ORIENTED_EDGE('',*,*,#760,.T.);
#1100=CARTESIAN_POINT('',(51.578475,52.244395,0.));
#1110=DIRECTION('',(0.,0.,1.));
#1120=VECTOR('',#1110,1.);
#1130=LINE('',#1100,#1120);
#1140=EDGE_CURVE('',#110,#690,#1130,.T.);
#1150=ORIENTED_EDGE('',*,*,#1140,.T.);
#1160=ORIENTED_EDGE('',*,*,#140,.F.);
#1170=EDGE_LOOP('',(#1160,#1150,#1090,#1080));
#1180=FACE_OUTER_BOUND('',#1170,.T.);
#1190=ADVANCED_FACE('',(#1180),#1070,.T.);
#1200=CARTESIAN_POINT('',(96.478475,52.244395,0.));
#1210=DIRECTION('',(0.,-1.,0.));
#1220=DIRECTION('',(-1.,-0.,0.));
#1230=AXIS2_PLACEMENT_3D('',#1200,#1210,#1220);
#1240=PLANE('',#1230);
#1250=ORIENTED_EDGE('',*,*,#1140,.F.);
#1260=ORIENTED_EDGE('',*,*,#700,.T.);
#1270=CARTESIAN_POINT('',(96.478475,52.244395,0.));
#1280=DIRECTION('',(0.,0.,1.));
#1290=VECTOR('',#1280,1.);
#1300=LINE('',#1270,#1290);
#1310=EDGE_CURVE('',#210,#610,#1300,.T.);
#1320=ORIENTED_EDGE('',*,*,#1310,.T.);
#1330=ORIENTED_EDGE('',*,*,#220,.F.);
#1340=EDGE_LOOP('',(#1330,#1320,#1260,#1250));
#1350=FACE_OUTER_BOUND('',#1340,.T.);
#1360=ADVANCED_FACE('',(#1350),#1240,.T.);
#1370=CARTESIAN_POINT('',(96.478475,58.744395,0.));
#1380=DIRECTION('',(1.,0.,-0.));
#1390=DIRECTION('',(0.,-1.,0.));
#1400=AXIS2_PLACEMENT_3D('',#1370,#1380,#1390);
#1410=PLANE('',#1400);
#1420=ORIENTED_EDGE('',*,*,#1310,.F.);
#1430=ORIENTED_EDGE('',*,*,#620,.T.);
#1440=ORIENTED_EDGE('',*,*,#900,.T.);
#1450=ORIENTED_EDGE('',*,*,#300,.F.);
#1460=EDGE_LOOP('',(#1450,#1440,#1430,#1420));
#1470=FACE_OUTER_BOUND('',#1460,.T.);
#1480=ADVANCED_FACE('',(#1470),#1410,.T.);
#1490=CLOSED_SHELL('',(#1020,#1190,#1360,#1480,#800,#400));
#1500=MANIFOLD_SOLID_BREP('',#1490);
#1510=CARTESIAN_POINT('',(0.,0.,0.));
#1520=DIRECTION('',(0.,0.,1.));
#1530=DIRECTION('',(1.,0.,0.));
#1540=AXIS2_PLACEMENT_3D('',#1510,#1520,#1530);
#1550=APPLICATION_CONTEXT(' ');
#1560=APPLICATION_PROTOCOL_DEFINITION(' ','automotive_design',1998,#1550
);
#1570=PRODUCT_CONTEXT('',#1550,'mechanical');
#1580=PRODUCT_DEFINITION_CONTEXT('part definition',#1550,'design');
#1590=PRODUCT('p1','p1','',(#1570));
#1600=PRODUCT_RELATED_PRODUCT_CATEGORY('part',' ',(#1590));
#1610=PRODUCT_DEFINITION_FORMATION_WITH_SPECIFIED_SOURCE('','',#1590,
.BOUGHT.);
#1620=PRODUCT_DEFINITION('',' ',#1610,#1580);
#1630=PRODUCT_DEFINITION_SHAPE('','',#1620);
#1640=DIMENSIONAL_EXPONENTS(1.,0.,0.,0.,0.,0.,0.);
#1650=DIMENSIONAL_EXPONENTS(0.,0.,0.,0.,0.,0.,0.);
#1660=DIMENSIONAL_EXPONENTS(0.,0.,0.,0.,0.,0.,0.);
#1670=(LENGTH_UNIT() NAMED_UNIT(*) SI_UNIT(.MILLI.,.METRE.));
#1680=(NAMED_UNIT(*) PLANE_ANGLE_UNIT() SI_UNIT($,.RADIAN.));
#1690=(NAMED_UNIT(*) SI_UNIT($,.STERADIAN.) SOLID_ANGLE_UNIT());
#1700=(GEOMETRIC_REPRESENTATION_CONTEXT(3) 
GLOBAL_UNCERTAINTY_ASSIGNED_CONTEXT((#1710)) 
GLOBAL_UNIT_ASSIGNED_CONTEXT((#1670,#1680,#1690)) REPRESENTATION_CONTEXT
('',''));
#1710=UNCERTAINTY_MEASURE_WITH_UNIT(LENGTH_MEASURE(1.E-6),#1670,
'distance_accuracy_value','maximum gap value');
#1720=ADVANCED_BREP_SHAPE_REPRESENTATION('',(#1540,#1500),#1700);
#1730=SHAPE_DEFINITION_REPRESENTATION(#1630,#1720);
#1740=COLOUR_RGB('',0.600000023841858,0.600000023841858,
0.600000023841858);
#1750=FILL_AREA_STYLE_COLOUR('',#1740);
#1760=FILL_AREA_STYLE('',(#1750));
#1770=SURFACE_STYLE_FILL_AREA(#1760);
#1780=SURFACE_SIDE_STYLE('',(#1770));
#1790=SURFACE_STYLE_USAGE(.BOTH.,#1780);
#1800=PRESENTATION_STYLE_ASSIGNMENT((#1790));
#1810=STYLED_ITEM('',(#1800),#1500);
#1820=DRAUGHTING_MODEL('',(#1810),#1700);
#1830=CARTESIAN_POINT('',(5.96540190898112,41.1778933222088,52.244391));
#1840=DIRECTION('',(-0.484809620246337,0.874619707139396,0.));
#1850=DIRECTION('',(0.874619707139396,0.484809620246337,0.));
#1860=AXIS2_PLACEMENT_3D('',#1830,#1840,#1850);
#1870=ITEM_DEFINED_TRANSFORMATION('p1','',#1540,#1860);
#1880=APPLICATION_CONTEXT(' ');
#1890=APPLICATION_PROTOCOL_DEFINITION(' ','automotive_design',1998,#1880
);
#1900=PRODUCT_CONTEXT('',#1880,'mechanical');
#1910=PRODUCT_DEFINITION_CONTEXT('part definition',#1880,'design');
#1920=PRODUCT('p1','p1','',(#1900));
#1930=PRODUCT_RELATED_PRODUCT_CATEGORY('part',' ',(#1920));
#1940=PRODUCT_DEFINITION_FORMATION_WITH_SPECIFIED_SOURCE('','',#1920,
.BOUGHT.);
#1950=PRODUCT_DEFINITION('',' ',#1940,#1910);
#1960=PRODUCT_DEFINITION_SHAPE('','',#1950);
#1970=DIMENSIONAL_EXPONENTS(1.,0.,0.,0.,0.,0.,0.);
#1980=DIMENSIONAL_EXPONENTS(0.,0.,0.,0.,0.,0.,0.);
#1990=DIMENSIONAL_EXPONENTS(0.,0.,0.,0.,0.,0.,0.);
#2000=(LENGTH_UNIT() NAMED_UNIT(*) SI_UNIT(.MILLI.,.METRE.));
#2010=(NAMED_UNIT(*) PLANE_ANGLE_UNIT() SI_UNIT($,.RADIAN.));
#2020=(NAMED_UNIT(*) SI_UNIT($,.STERADIAN.) SOLID_ANGLE_UNIT());
#2030=(GEOMETRIC_REPRESENTATION_CONTEXT(3) 
GLOBAL_UNCERTAINTY_ASSIGNED_CONTEXT((#2040)) 
GLOBAL_UNIT_ASSIGNED_CONTEXT((#2000,#2010,#2020)) REPRESENTATION_CONTEXT
('',''));
#2040=UNCERTAINTY_MEASURE_WITH_UNIT(LENGTH_MEASURE(1.E-6),#2000,
'distance_accuracy_value','maximum gap value');
#2050=SHAPE_REPRESENTATION('',(#1540,#1860),#2030);
#2060=SHAPE_DEFINITION_REPRESENTATION(#1960,#2050);
#2070=(REPRESENTATION_RELATIONSHIP('','',#1720,#2050) 
REPRESENTATION_RELATIONSHIP_WITH_TRANSFORMATION(#1870) 
SHAPE_REPRESENTATION_RELATIONSHIP());
#2080=NEXT_ASSEMBLY_USAGE_OCCURRENCE('1','','p1',#1950,#1620,'');
#2090=PRODUCT_DEFINITION_SHAPE('','',#2080);
#2100=CONTEXT_DEPENDENT_SHAPE_REPRESENTATION(#2070,#2090);
#2110=CARTESIAN_POINT('',(0.,0.,0.));
#2120=DIRECTION('',(0.,0.,1.));
#2130=DIRECTION('',(1.,0.,-0.));
#2140=AXIS2_PLACEMENT_3D('',#2110,#2120,#2130);
#2150=PLANE('',#2140);
#2160=CARTESIAN_POINT('',(51.578475,97.244395,0.));
#2170=DIRECTION('',(1.,0.,0.));
#2180=VECTOR('',#2170,1.);
#2190=LINE('',#2160,#2180);
#2200=CARTESIAN_POINT('',(46.578475,97.244395,0.));
#2210=VERTEX_POINT('',#2200);
#2220=CARTESIAN_POINT('',(91.578475,97.244395,-0.));
#2230=VERTEX_POINT('',#2220);
#2240=EDGE_CURVE('',#2210,#2230,#2190,.T.);
#2250=ORIENTED_EDGE('',*,*,#2240,.F.);
#2260=CARTESIAN_POINT('',(91.578475,92.244395,0.));
#2270=DIRECTION('',(0.,-1.,0.));
#2280=VECTOR('',#2270,1.);
#2290=LINE('',#2260,#2280);
#2300=CARTESIAN_POINT('',(91.578475,52.244395,-0.));
#2310=VERTEX_POINT('',#2300);
#2320=EDGE_CURVE('',#2230,#2310,#2290,.T.);
#2330=ORIENTED_EDGE('',*,*,#2320,.F.);
#2340=CARTESIAN_POINT('',(91.578475,52.244395,0.));
#2350=DIRECTION('',(-1.,0.,0.));
#2360=VECTOR('',#2350,1.);
#2370=LINE('',#2340,#2360);
#2380=CARTESIAN_POINT('',(46.578475,52.244395,-0.));
#2390=VERTEX_POINT('',#2380);
#2400=EDGE_CURVE('',#2310,#2390,#2370,.T.);
#2410=ORIENTED_EDGE('',*,*,#2400,.F.);
#2420=CARTESIAN_POINT('',(46.578475,52.244395,0.));
#2430=DIRECTION('',(0.,1.,0.));
#2440=VECTOR('',#2430,1.);
#2450=LINE('',#2420,#2440);
#2460=EDGE_CURVE('',#2390,#2210,#2450,.T.);
#2470=ORIENTED_EDGE('',*,*,#2460,.F.);
#2480=EDGE_LOOP('',(#2470,#2410,#2330,#2250));
#2490=FACE_BOUND('',#2480,.T.);
#2500=CARTESIAN_POINT('',(32.4610270084132,30.0548140027964,0.));
#2510=DIRECTION('',(0.,1.,0.));
#2520=VECTOR('',#2510,1.);
#2530=LINE('',#2500,#2520);
#2540=CARTESIAN_POINT('',(32.4610270084132,30.0548140027964,0.));
#2550=VERTEX_POINT('',#2540);
#2560=CARTESIAN_POINT('',(32.4610270084132,108.989184977226,0.));
#2570=VERTEX_POINT('',#2560);
#2580=EDGE_CURVE('',#2550,#2570,#2530,.T.);
#2590=ORIENTED_EDGE('',*,*,#2580,.T.);
#2600=CARTESIAN_POINT('',(113.184034852563,30.0548140027964,0.));
#2610=DIRECTION('',(-1.,0.,0.));
#2620=VECTOR('',#2610,1.);
#2630=LINE('',#2600,#2620);
#2640=CARTESIAN_POINT('',(113.184034852563,30.0548140027964,0.));
#2650=VERTEX_POINT('',#2640);
#2660=EDGE_CURVE('',#2650,#2550,#2630,.T.);
#2670=ORIENTED_EDGE('',*,*,#2660,.T.);
#2680=CARTESIAN_POINT('',(113.184034852563,108.989184977226,0.));
#2690=DIRECTION('',(0.,-1.,0.));
#2700=VECTOR('',#2690,1.);
#2710=LINE('',#2680,#2700);
#2720=CARTESIAN_POINT('',(113.184034852563,108.989184977226,0.));
#2730=VERTEX_POINT('',#2720);
#2740=EDGE_CURVE('',#2730,#2650,#2710,.T.);
#2750=ORIENTED_EDGE('',*,*,#2740,.T.);
#2760=CARTESIAN_POINT('',(32.4610270084132,108.989184977226,0.));
#2770=DIRECTION('',(1.,0.,0.));
#2780=VECTOR('',#2770,1.);
#2790=LINE('',#2760,#2780);
#2800=EDGE_CURVE('',#2570,#2730,#2790,.T.);
#2810=ORIENTED_EDGE('',*,*,#2800,.T.);
#2820=EDGE_LOOP('',(#2810,#2750,#2670,#2590));
#2830=FACE_OUTER_BOUND('',#2820,.T.);
#2840=ADVANCED_FACE('',(#2490,#2830),#2150,.F.);
#2850=CARTESIAN_POINT('',(0.,0.,10.));
#2860=DIRECTION('',(0.,0.,1.));
#2870=DIRECTION('',(1.,0.,-0.));
#2880=AXIS2_PLACEMENT_3D('',#2850,#2860,#2870);
#2890=PLANE('',#2880);
#2900=CARTESIAN_POINT('',(46.578475,52.244395,10.));
#2910=DIRECTION('',(0.,1.,0.));
#2920=VECTOR('',#2910,1.);
#2930=LINE('',#2900,#2920);
#2940=CARTESIAN_POINT('',(46.578475,52.244395,10.));
#2950=VERTEX_POINT('',#2940);
#2960=CARTESIAN_POINT('',(46.578475,97.244395,10.));
#2970=VERTEX_POINT('',#2960);
#2980=EDGE_CURVE('',#2950,#2970,#2930,.T.);
#2990=ORIENTED_EDGE('',*,*,#2980,.T.);
#3000=CARTESIAN_POINT('',(91.578475,52.244395,10.));
#3010=DIRECTION('',(-1.,0.,0.));
#3020=VECTOR('',#3010,1.);
#3030=LINE('',#3000,#3020);
#3040=CARTESIAN_POINT('',(91.578475,52.244395,10.));
#3050=VERTEX_POINT('',#3040);
#3060=EDGE_CURVE('',#3050,#2950,#3030,.T.);
#3070=ORIENTED_EDGE('',*,*,#3060,.T.);
#3080=CARTESIAN_POINT('',(91.578475,92.244395,10.));
#3090=DIRECTION('',(0.,-1.,0.));
#3100=VECTOR('',#3090,1.);
#3110=LINE('',#3080,#3100);
#3120=CARTESIAN_POINT('',(91.578475,97.244395,10.));
#3130=VERTEX_POINT('',#3120);
#3140=EDGE_CURVE('',#3130,#3050,#3110,.T.);
#3150=ORIENTED_EDGE('',*,*,#3140,.T.);
#3160=CARTESIAN_POINT('',(51.578475,97.244395,10.));
#3170=DIRECTION('',(1.,0.,0.));
#3180=VECTOR('',#3170,1.);
#3190=LINE('',#3160,#3180);
#3200=EDGE_CURVE('',#2970,#3130,#3190,.T.);
#3210=ORIENTED_EDGE('',*,*,#3200,.T.);
#3220=EDGE_LOOP('',(#3210,#3150,#3070,#2990));
#3230=FACE_BOUND('',#3220,.T.);
#3240=CARTESIAN_POINT('',(32.4610270084132,108.989184977226,10.));
#3250=DIRECTION('',(1.,0.,0.));
#3260=VECTOR('',#3250,1.);
#3270=LINE('',#3240,#3260);
#3280=CARTESIAN_POINT('',(32.4610270084132,108.989184977226,10.));
#3290=VERTEX_POINT('',#3280);
#3300=CARTESIAN_POINT('',(113.184034852563,108.989184977226,10.));
#3310=VERTEX_POINT('',#3300);
#3320=EDGE_CURVE('',#3290,#3310,#3270,.T.);
#3330=ORIENTED_EDGE('',*,*,#3320,.F.);
#3340=CARTESIAN_POINT('',(113.184034852563,108.989184977226,10.));
#3350=DIRECTION('',(0.,-1.,0.));
#3360=VECTOR('',#3350,1.);
#3370=LINE('',#3340,#3360);
#3380=CARTESIAN_POINT('',(113.184034852563,30.0548140027964,10.));
#3390=VERTEX_POINT('',#3380);
#3400=EDGE_CURVE('',#3310,#3390,#3370,.T.);
#3410=ORIENTED_EDGE('',*,*,#3400,.F.);
#3420=CARTESIAN_POINT('',(113.184034852563,30.0548140027964,10.));
#3430=DIRECTION('',(-1.,0.,0.));
#3440=VECTOR('',#3430,1.);
#3450=LINE('',#3420,#3440);
#3460=CARTESIAN_POINT('',(32.4610270084132,30.0548140027964,10.));
#3470=VERTEX_POINT('',#3460);
#3480=EDGE_CURVE('',#3390,#3470,#3450,.T.);
#3490=ORIENTED_EDGE('',*,*,#3480,.F.);
#3500=CARTESIAN_POINT('',(32.4610270084132,30.0548140027964,10.));
#3510=DIRECTION('',(0.,1.,0.));
#3520=VECTOR('',#3510,1.);
#3530=LINE('',#3500,#3520);
#3540=EDGE_CURVE('',#3470,#3290,#3530,.T.);
#3550=ORIENTED_EDGE('',*,*,#3540,.F.);
#3560=EDGE_LOOP('',(#3550,#3490,#3410,#3330));
#3570=FACE_OUTER_BOUND('',#3560,.T.);
#3580=ADVANCED_FACE('',(#3230,#3570),#2890,.T.);
#3590=CARTESIAN_POINT('',(51.578475,52.244395,0.));
#3600=DIRECTION('',(0.,1.,-0.));
#3610=DIRECTION('',(1.,-0.,0.));
#3620=AXIS2_PLACEMENT_3D('',#3590,#3600,#3610);
#3630=PLANE('',#3620);
#3640=CARTESIAN_POINT('',(91.578475,52.244395,0.));
#3650=DIRECTION('',(0.,0.,1.));
#3660=VECTOR('',#3650,1.);
#3670=LINE('',#3640,#3660);
#3680=EDGE_CURVE('',#2310,#3050,#3670,.T.);
#3690=ORIENTED_EDGE('',*,*,#3680,.F.);
#3700=ORIENTED_EDGE('',*,*,#3060,.F.);
#3710=CARTESIAN_POINT('',(46.578475,52.244395,0.));
#3720=DIRECTION('',(0.,0.,1.));
#3730=VECTOR('',#3720,1.);
#3740=LINE('',#3710,#3730);
#3750=EDGE_CURVE('',#2390,#2950,#3740,.T.);
#3760=ORIENTED_EDGE('',*,*,#3750,.T.);
#3770=ORIENTED_EDGE('',*,*,#2400,.T.);
#3780=EDGE_LOOP('',(#3770,#3760,#3700,#3690));
#3790=FACE_OUTER_BOUND('',#3780,.T.);
#3800=ADVANCED_FACE('',(#3790),#3630,.T.);
#3810=CARTESIAN_POINT('',(46.578475,92.244395,0.));
#3820=DIRECTION('',(1.,0.,0.));
#3830=DIRECTION('',(0.,-1.,0.));
#3840=AXIS2_PLACEMENT_3D('',#3810,#3820,#3830);
#3850=PLANE('',#3840);
#3860=ORIENTED_EDGE('',*,*,#3750,.F.);
#3870=ORIENTED_EDGE('',*,*,#2980,.F.);
#3880=CARTESIAN_POINT('',(46.578475,97.244395,0.));
#3890=DIRECTION('',(0.,0.,1.));
#3900=VECTOR('',#3890,1.);
#3910=LINE('',#3880,#3900);
#3920=EDGE_CURVE('',#2210,#2970,#3910,.T.);
#3930=ORIENTED_EDGE('',*,*,#3920,.T.);
#3940=ORIENTED_EDGE('',*,*,#2460,.T.);
#3950=EDGE_LOOP('',(#3940,#3930,#3870,#3860));
#3960=FACE_OUTER_BOUND('',#3950,.T.);
#3970=ADVANCED_FACE('',(#3960),#3850,.T.);
#3980=CARTESIAN_POINT('',(91.578475,97.244395,0.));
#3990=DIRECTION('',(0.,-1.,0.));
#4000=DIRECTION('',(-1.,-0.,0.));
#4010=AXIS2_PLACEMENT_3D('',#3980,#3990,#4000);
#4020=PLANE('',#4010);
#4030=ORIENTED_EDGE('',*,*,#3920,.F.);
#4040=ORIENTED_EDGE('',*,*,#3200,.F.);
#4050=CARTESIAN_POINT('',(91.578475,97.244395,0.));
#4060=DIRECTION('',(0.,0.,1.));
#4070=VECTOR('',#4060,1.);
#4080=LINE('',#4050,#4070);
#4090=EDGE_CURVE('',#2230,#3130,#4080,.T.);
#4100=ORIENTED_EDGE('',*,*,#4090,.T.);
#4110=ORIENTED_EDGE('',*,*,#2240,.T.);
#4120=EDGE_LOOP('',(#4110,#4100,#4040,#4030));
#4130=FACE_OUTER_BOUND('',#4120,.T.);
#4140=ADVANCED_FACE('',(#4130),#4020,.T.);
#4150=CARTESIAN_POINT('',(91.578475,52.244395,0.));
#4160=DIRECTION('',(-1.,0.,0.));
#4170=DIRECTION('',(0.,1.,0.));
#4180=AXIS2_PLACEMENT_3D('',#4150,#4160,#4170);
#4190=PLANE('',#4180);
#4200=ORIENTED_EDGE('',*,*,#4090,.F.);
#4210=ORIENTED_EDGE('',*,*,#3140,.F.);
#4220=ORIENTED_EDGE('',*,*,#3680,.T.);
#4230=ORIENTED_EDGE('',*,*,#2320,.T.);
#4240=EDGE_LOOP('',(#4230,#4220,#4210,#4200));
#4250=FACE_OUTER_BOUND('',#4240,.T.);
#4260=ADVANCED_FACE('',(#4250),#4190,.T.);
#4270=CARTESIAN_POINT('',(32.4610270084132,108.989184977226,0.));
#4280=DIRECTION('',(0.,1.,0.));
#4290=DIRECTION('',(1.,-0.,0.));
#4300=AXIS2_PLACEMENT_3D('',#4270,#4280,#4290);
#4310=PLANE('',#4300);
#4320=CARTESIAN_POINT('',(113.184034852563,108.989184977226,0.));
#4330=DIRECTION('',(0.,0.,1.));
#4340=VECTOR('',#4330,1.);
#4350=LINE('',#4320,#4340);
#4360=EDGE_CURVE('',#2730,#3310,#4350,.T.);
#4370=ORIENTED_EDGE('',*,*,#4360,.F.);
#4380=ORIENTED_EDGE('',*,*,#3320,.T.);
#4390=CARTESIAN_POINT('',(32.4610270084132,108.989184977226,0.));
#4400=DIRECTION('',(0.,0.,1.));
#4410=VECTOR('',#4400,1.);
#4420=LINE('',#4390,#4410);
#4430=EDGE_CURVE('',#2570,#3290,#4420,.T.);
#4440=ORIENTED_EDGE('',*,*,#4430,.T.);
#4450=ORIENTED_EDGE('',*,*,#2800,.F.);
#4460=EDGE_LOOP('',(#4450,#4440,#4380,#4370));
#4470=FACE_OUTER_BOUND('',#4460,.T.);
#4480=ADVANCED_FACE('',(#4470),#4310,.T.);
#4490=CARTESIAN_POINT('',(32.4610270084132,30.0548140027964,0.));
#4500=DIRECTION('',(-1.,0.,0.));
#4510=DIRECTION('',(0.,1.,0.));
#4520=AXIS2_PLACEMENT_3D('',#4490,#4500,#4510);
#4530=PLANE('',#4520);
#4540=ORIENTED_EDGE('',*,*,#4430,.F.);
#4550=ORIENTED_EDGE('',*,*,#3540,.T.);
#4560=CARTESIAN_POINT('',(32.4610270084132,30.0548140027964,0.));
#4570=DIRECTION('',(0.,0.,1.));
#4580=VECTOR('',#4570,1.);
#4590=LINE('',#4560,#4580);
#4600=EDGE_CURVE('',#2550,#3470,#4590,.T.);
#4610=ORIENTED_EDGE('',*,*,#4600,.T.);
#4620=ORIENTED_EDGE('',*,*,#2580,.F.);
#4630=EDGE_LOOP('',(#4620,#4610,#4550,#4540));
#4640=FACE_OUTER_BOUND('',#4630,.T.);
#4650=ADVANCED_FACE('',(#4640),#4530,.T.);
#4660=CARTESIAN_POINT('',(113.184034852563,30.0548140027964,0.));
#4670=DIRECTION('',(0.,-1.,0.));
#4680=DIRECTION('',(-1.,-0.,0.));
#4690=AXIS2_PLACEMENT_3D('',#4660,#4670,#4680);
#4700=PLANE('',#4690);
#4710=ORIENTED_EDGE('',*,*,#4600,.F.);
#4720=ORIENTED_EDGE('',*,*,#3480,.T.);
#4730=CARTESIAN_POINT('',(113.184034852563,30.0548140027964,0.));
#4740=DIRECTION('',(0.,0.,1.));
#4750=VECTOR('',#4740,1.);
#4760=LINE('',#4730,#4750);
#4770=EDGE_CURVE('',#2650,#3390,#4760,.T.);
#4780=ORIENTED_EDGE('',*,*,#4770,.T.);
#4790=ORIENTED_EDGE('',*,*,#2660,.F.);
#4800=EDGE_LOOP('',(#4790,#4780,#4720,#4710));
#4810=FACE_OUTER_BOUND('',#4800,.T.);
#4820=ADVANCED_FACE('',(#4810),#4700,.T.);
#4830=CARTESIAN_POINT('',(113.184034852563,108.989184977226,0.));
#4840=DIRECTION('',(1.,0.,-0.));
#4850=DIRECTION('',(0.,-1.,0.));
#4860=AXIS2_PLACEMENT_3D('',#4830,#4840,#4850);
#4870=PLANE('',#4860);
#4880=ORIENTED_EDGE('',*,*,#4770,.F.);
#4890=ORIENTED_EDGE('',*,*,#3400,.T.);
#4900=ORIENTED_EDGE('',*,*,#4360,.T.);
#4910=ORIENTED_EDGE('',*,*,#2740,.F.);
#4920=EDGE_LOOP('',(#4910,#4900,#4890,#4880));
#4930=FACE_OUTER_BOUND('',#4920,.T.);
#4940=ADVANCED_FACE('',(#4930),#4870,.T.);
#4950=CLOSED_SHELL('',(#3800,#3970,#4140,#4260,#4480,#4650,#4820,#4940,
#3580,#2840));
#4960=MANIFOLD_SOLID_BREP('',#4950);
#4970=APPLICATION_CONTEXT(' ');
#4980=APPLICATION_PROTOCOL_DEFINITION(' ','automotive_design',1998,#4970
);
#4990=PRODUCT_CONTEXT('',#4970,'mechanical');
#5000=PRODUCT_DEFINITION_CONTEXT('part definition',#4970,'design');
#5010=PRODUCT('p2','p2','',(#4990));
#5020=PRODUCT_RELATED_PRODUCT_CATEGORY('part',' ',(#5010));
#5030=PRODUCT_DEFINITION_FORMATION_WITH_SPECIFIED_SOURCE('','',#5010,
.BOUGHT.);
#5040=PRODUCT_DEFINITION('',' ',#5030,#5000);
#5050=PRODUCT_DEFINITION_SHAPE('','',#5040);
#5060=DIMENSIONAL_EXPONENTS(1.,0.,0.,0.,0.,0.,0.);
#5070=DIMENSIONAL_EXPONENTS(0.,0.,0.,0.,0.,0.,0.);
#5080=DIMENSIONAL_EXPONENTS(0.,0.,0.,0.,0.,0.,0.);
#5090=(LENGTH_UNIT() NAMED_UNIT(*) SI_UNIT(.MILLI.,.METRE.));
#5100=(NAMED_UNIT(*) PLANE_ANGLE_UNIT() SI_UNIT($,.RADIAN.));
#5110=(NAMED_UNIT(*) SI_UNIT($,.STERADIAN.) SOLID_ANGLE_UNIT());
#5120=(GEOMETRIC_REPRESENTATION_CONTEXT(3) 
GLOBAL_UNCERTAINTY_ASSIGNED_CONTEXT((#5130)) 
GLOBAL_UNIT_ASSIGNED_CONTEXT((#5090,#5100,#5110)) REPRESENTATION_CONTEXT
('',''));
#5130=UNCERTAINTY_MEASURE_WITH_UNIT(LENGTH_MEASURE(1.E-6),#5090,
'distance_accuracy_value','maximum gap value');
#5140=ADVANCED_BREP_SHAPE_REPRESENTATION('',(#1540,#4960),#5120);
#5150=SHAPE_DEFINITION_REPRESENTATION(#5050,#5140);
#5160=COLOUR_RGB('',0.600000023841858,0.600000023841858,
0.600000023841858);
#5170=FILL_AREA_STYLE_COLOUR('',#5160);
#5180=FILL_AREA_STYLE('',(#5170));
#5190=SURFACE_STYLE_FILL_AREA(#5180);
#5200=SURFACE_SIDE_STYLE('',(#5190));
#5210=SURFACE_STYLE_USAGE(.BOTH.,#5200);
#5220=PRESENTATION_STYLE_ASSIGNMENT((#5210));
#5230=STYLED_ITEM('',(#5220),#4960);
#5240=DRAUGHTING_MODEL('',(#5230),#5120);
ENDSEC;
END-ISO-10303-21;
