ISO-10303-21;
HEADER;
FILE_DESCRIPTION (( 'STEP AP203' ),
    '1' );
FILE_NAME ('93849A109.step',
    '2009-11-20T16:50:06',
    ( 'jim' ),
    ( '' ),
    'SwSTEP 2.0',
    'SolidWorks 2007',
    '' );
FILE_SCHEMA (( 'CONFIG_CONTROL_DESIGN' ));
ENDSEC;

DATA;
#1 = ORIENTED_EDGE ( 'NONE', *, *, #23, .F. ) ;
#2 = VERTEX_POINT ( 'NONE', #86 ) ;
#3 = EDGE_LOOP ( 'NONE', ( #31, #6, #1, #11 ) ) ;
#4 = ADVANCED_FACE ( 'NONE', ( #76 ), #67, .T. ) ;
#5 = EDGE_LOOP ( 'NONE', ( #28, #33, #32, #35 ) ) ;
#6 = ORIENTED_EDGE ( 'NONE', *, *, #9, .T. ) ;
#7 = EDGE_CURVE ( 'NONE', #36, #25, #83, .T. ) ;
#8 = EDGE_CURVE ( 'NONE', #14, #26, #84, .T. ) ;
#9 = EDGE_CURVE ( 'NONE', #25, #24, #80, .T. ) ;
#10 = EDGE_CURVE ( 'NONE', #25, #36, #96, .T. ) ;
#11 = ORIENTED_EDGE ( 'NONE', *, *, #12, .F. ) ;
#12 = EDGE_CURVE ( 'NONE', #36, #27, #93, .T. ) ;
#13 = ORIENTED_EDGE ( 'NONE', *, *, #29, .F. ) ;
#14 = VERTEX_POINT ( 'NONE', #95 ) ;
#15 = ORIENTED_EDGE ( 'NONE', *, *, #22, .T. ) ;
#16 = VERTEX_POINT ( 'NONE', #98 ) ;
#17 = EDGE_CURVE ( 'NONE', #16, #14, #88, .T. ) ;
#18 = EDGE_LOOP ( 'NONE', ( #43, #48 ) ) ;
#19 = MECHANICAL_CONTEXT ( 'NONE', #21, 'mechanical' ) ;
#20 = APPLICATION_PROTOCOL_DEFINITION ( 'international standard', 'config_control_design', 1994, #21 ) ;
#21 = APPLICATION_CONTEXT ( 'configuration controlled 3d designs of mechanical parts and assemblies' ) ;
#22 = EDGE_CURVE ( 'NONE', #16, #2, #107, .T. ) ;
#23 = EDGE_CURVE ( 'NONE', #27, #24, #102, .T. ) ;
#24 = VERTEX_POINT ( 'NONE', #131 ) ;
#25 = VERTEX_POINT ( 'NONE', #167 ) ;
#26 = VERTEX_POINT ( 'NONE', #157 ) ;
#27 = VERTEX_POINT ( 'NONE', #138 ) ;
#28 = ORIENTED_EDGE ( 'NONE', *, *, #9, .F. ) ;
#29 = EDGE_CURVE ( 'NONE', #2, #26, #133, .T. ) ;
#30 = ORIENTED_EDGE ( 'NONE', *, *, #8, .F. ) ;
#31 = ORIENTED_EDGE ( 'NONE', *, *, #7, .T. ) ;
#32 = ORIENTED_EDGE ( 'NONE', *, *, #12, .T. ) ;
#33 = ORIENTED_EDGE ( 'NONE', *, *, #10, .T. ) ;
#34 = ORIENTED_EDGE ( 'NONE', *, *, #29, .T. ) ;
#35 = ORIENTED_EDGE ( 'NONE', *, *, #39, .F. ) ;
#36 = VERTEX_POINT ( 'NONE', #123 ) ;
#37 = ADVANCED_FACE ( 'NONE', ( #144 ), #143, .T. ) ;
#38 = CLOSED_SHELL ( 'NONE', ( #62, #37, #4, #60, #42, #59 ) ) ;
#39 = EDGE_CURVE ( 'NONE', #24, #27, #146, .T. ) ;
#40 = EDGE_LOOP ( 'NONE', ( #45, #53 ) ) ;
#41 = ORIENTED_EDGE ( 'NONE', *, *, #54, .F. ) ;
#42 = ADVANCED_FACE ( 'NONE', ( #154, #111 ), #112, .T. ) ;
#43 = ORIENTED_EDGE ( 'NONE', *, *, #23, .T. ) ;
#44 = ORIENTED_EDGE ( 'NONE', *, *, #7, .F. ) ;
#45 = ORIENTED_EDGE ( 'NONE', *, *, #47, .T. ) ;
#46 = ORIENTED_EDGE ( 'NONE', *, *, #22, .F. ) ;
#47 = EDGE_CURVE ( 'NONE', #14, #16, #113, .T. ) ;
#48 = ORIENTED_EDGE ( 'NONE', *, *, #39, .T. ) ;
#49 = EDGE_LOOP ( 'NONE', ( #50, #15, #34, #30 ) ) ;
#50 = ORIENTED_EDGE ( 'NONE', *, *, #17, .F. ) ;
#51 = ORIENTED_EDGE ( 'NONE', *, *, #54, .T. ) ;
#52 = ORIENTED_EDGE ( 'NONE', *, *, #10, .F. ) ;
#53 = ORIENTED_EDGE ( 'NONE', *, *, #17, .T. ) ;
#54 = EDGE_CURVE ( 'NONE', #26, #2, #166, .T. ) ;
#55 = ORIENTED_EDGE ( 'NONE', *, *, #47, .F. ) ;
#56 = EDGE_LOOP ( 'NONE', ( #41, #13 ) ) ;
#57 = EDGE_LOOP ( 'NONE', ( #44, #52 ) ) ;
#58 = ORIENTED_EDGE ( 'NONE', *, *, #8, .T. ) ;
#59 = ADVANCED_FACE ( 'NONE', ( #161 ), #134, .F. ) ;
#60 = ADVANCED_FACE ( 'NONE', ( #136, #135 ), #128, .F. ) ;
#61 = EDGE_LOOP ( 'NONE', ( #46, #55, #58, #51 ) ) ;
#62 = ADVANCED_FACE ( 'NONE', ( #129 ), #122, .F. ) ;
#63 = AXIS2_PLACEMENT_3D ( 'NONE', #78, #100, #101 ) ;
#64 = VECTOR ( 'NONE', #65, 1000.000000000000000 ) ;
#65 = DIRECTION ( 'NONE',  ( 0.0000000000000000000, 0.0000000000000000000, 1.000000000000000000 ) ) ;
#66 = MANIFOLD_SOLID_BREP ( 'NONE', #38 ) ;
#67 = CYLINDRICAL_SURFACE ( 'NONE', #81, 14.00000000000000000 ) ;
#68 = CARTESIAN_POINT ( 'NONE',  ( 0.0000000000000000000, 0.0000000000000000000, -3.000000000000000000 ) ) ;
#69 = DIRECTION ( 'NONE',  ( 0.0000000000000000000, 0.0000000000000000000, 1.000000000000000000 ) ) ;
#70 = VECTOR ( 'NONE', #69, 1000.000000000000000 ) ;
#71 = CARTESIAN_POINT ( 'NONE',  ( 8.500000000000000000, 0.0000000000000000000, -3.000000000000000000 ) ) ;
#72 = DIRECTION ( 'NONE',  ( 1.000000000000000000, 0.0000000000000000000, 0.0000000000000000000 ) ) ;
#73 = PRODUCT ( '93849A109', '93849A109', '', ( #19 ) ) ;
#74 = AXIS2_PLACEMENT_3D ( 'NONE', #68, #85, #82 ) ;
#75 = DIRECTION ( 'NONE',  ( 0.0000000000000000000, 0.0000000000000000000, 1.000000000000000000 ) ) ;
#76 = FACE_OUTER_BOUND ( 'NONE', #5, .T. ) ;
#77 = CARTESIAN_POINT ( 'NONE',  ( 0.0000000000000000000, 0.0000000000000000000, -3.000000000000000000 ) ) ;
#78 = CARTESIAN_POINT ( 'NONE',  ( 0.0000000000000000000, 0.0000000000000000000, -3.000000000000000000 ) ) ;
#79 = CARTESIAN_POINT ( 'NONE',  ( -14.00000000000000000, 1.714448895351328200E-015, -3.000000000000000000 ) ) ;
#80 = LINE ( 'NONE', #79, #64 ) ;
#81 = AXIS2_PLACEMENT_3D ( 'NONE', #77, #75, #72 ) ;
#82 = DIRECTION ( 'NONE',  ( 1.000000000000000000, 0.0000000000000000000, 0.0000000000000000000 ) ) ;
#83 = CIRCLE ( 'NONE', #74, 14.00000000000000000 ) ;
#84 = LINE ( 'NONE', #71, #70 ) ;
#85 = DIRECTION ( 'NONE',  ( 0.0000000000000000000, 0.0000000000000000000, 1.000000000000000000 ) ) ;
#86 = CARTESIAN_POINT ( 'NONE',  ( -8.500000000000000000, 1.040915400749020900E-015, 0.0000000000000000000 ) ) ;
#87 = DIRECTION ( 'NONE',  ( 1.000000000000000000, 0.0000000000000000000, 0.0000000000000000000 ) ) ;
#88 = CIRCLE ( 'NONE', #63, 8.500000000000000000 ) ;
#89 = AXIS2_PLACEMENT_3D ( 'NONE', #109, #108, #110 ) ;
#90 = VECTOR ( 'NONE', #92, 1000.000000000000000 ) ;
#91 = CARTESIAN_POINT ( 'NONE',  ( 14.00000000000000000, 0.0000000000000000000, -3.000000000000000000 ) ) ;
#92 = DIRECTION ( 'NONE',  ( 0.0000000000000000000, 0.0000000000000000000, 1.000000000000000000 ) ) ;
#93 = LINE ( 'NONE', #91, #90 ) ;
#94 = AXIS2_PLACEMENT_3D ( 'NONE', #99, #97, #87 ) ;
#95 = CARTESIAN_POINT ( 'NONE',  ( 8.500000000000000000, 0.0000000000000000000, -3.000000000000000000 ) ) ;
#96 = CIRCLE ( 'NONE', #94, 14.00000000000000000 ) ;
#97 = DIRECTION ( 'NONE',  ( 0.0000000000000000000, 0.0000000000000000000, 1.000000000000000000 ) ) ;
#98 = CARTESIAN_POINT ( 'NONE',  ( -8.500000000000000000, 1.040915400749020900E-015, -3.000000000000000000 ) ) ;
#99 = CARTESIAN_POINT ( 'NONE',  ( 0.0000000000000000000, 0.0000000000000000000, -3.000000000000000000 ) ) ;
#100 = DIRECTION ( 'NONE',  ( 0.0000000000000000000, 0.0000000000000000000, 1.000000000000000000 ) ) ;
#101 = DIRECTION ( 'NONE',  ( 1.000000000000000000, 0.0000000000000000000, 0.0000000000000000000 ) ) ;
#102 = CIRCLE ( 'NONE', #89, 14.00000000000000000 ) ;
#103 = DIRECTION ( 'NONE',  ( 1.000000000000000000, 0.0000000000000000000, 0.0000000000000000000 ) ) ;
#104 = DIRECTION ( 'NONE',  ( 0.0000000000000000000, 0.0000000000000000000, 1.000000000000000000 ) ) ;
#105 = VECTOR ( 'NONE', #104, 1000.000000000000000 ) ;
#106 = CARTESIAN_POINT ( 'NONE',  ( -8.500000000000000000, 1.040915400749020900E-015, -3.000000000000000000 ) ) ;
#107 = LINE ( 'NONE', #106, #105 ) ;
#108 = DIRECTION ( 'NONE',  ( 0.0000000000000000000, 0.0000000000000000000, 1.000000000000000000 ) ) ;
#109 = CARTESIAN_POINT ( 'NONE',  ( 0.0000000000000000000, 0.0000000000000000000, 0.0000000000000000000 ) ) ;
#110 = DIRECTION ( 'NONE',  ( 1.000000000000000000, 0.0000000000000000000, 0.0000000000000000000 ) ) ;
#111 = FACE_OUTER_BOUND ( 'NONE', #18, .T. ) ;
#112 = PLANE ( 'NONE',  #116 ) ;
#113 = CIRCLE ( 'NONE', #137, 8.500000000000000000 ) ;
#114 = DIRECTION ( 'NONE',  ( 1.000000000000000000, 0.0000000000000000000, 0.0000000000000000000 ) ) ;
#115 = DIRECTION ( 'NONE',  ( 0.0000000000000000000, 0.0000000000000000000, 1.000000000000000000 ) ) ;
#116 = AXIS2_PLACEMENT_3D ( 'NONE', #152, #151, #150 ) ;
#117 = DIRECTION ( 'NONE',  ( 1.000000000000000000, 0.0000000000000000000, 0.0000000000000000000 ) ) ;
#118 = DIRECTION ( 'NONE',  ( 0.0000000000000000000, 0.0000000000000000000, 1.000000000000000000 ) ) ;
#119 = CARTESIAN_POINT ( 'NONE',  ( 0.0000000000000000000, 0.0000000000000000000, -3.000000000000000000 ) ) ;
#120 = AXIS2_PLACEMENT_3D ( 'NONE', #119, #118, #103 ) ;
#121 = PERSON ( 'UNSPECIFIED', 'UNSPECIFIED', 'UNSPECIFIED', ('UNSPECIFIED'), ('UNSPECIFIED'), ('UNSPECIFIED') ) ;
#122 = CYLINDRICAL_SURFACE ( 'NONE', #120, 8.500000000000000000 ) ;
#123 = CARTESIAN_POINT ( 'NONE',  ( 14.00000000000000000, 0.0000000000000000000, -3.000000000000000000 ) ) ;
#124 = DIRECTION ( 'NONE',  ( 1.000000000000000000, 0.0000000000000000000, 0.0000000000000000000 ) ) ;
#125 = DIRECTION ( 'NONE',  ( 0.0000000000000000000, 0.0000000000000000000, 1.000000000000000000 ) ) ;
#126 = CARTESIAN_POINT ( 'NONE',  ( 0.0000000000000000000, 0.0000000000000000000, -3.000000000000000000 ) ) ;
#127 = AXIS2_PLACEMENT_3D ( 'NONE', #126, #125, #124 ) ;
#128 = PLANE ( 'NONE',  #127 ) ;
#129 = FACE_OUTER_BOUND ( 'NONE', #49, .T. ) ;
#130 = DIRECTION ( 'NONE',  ( 0.0000000000000000000, 0.0000000000000000000, 1.000000000000000000 ) ) ;
#131 = CARTESIAN_POINT ( 'NONE',  ( -14.00000000000000000, 1.714448895351328200E-015, 0.0000000000000000000 ) ) ;
#132 = AXIS2_PLACEMENT_3D ( 'NONE', #158, #115, #114 ) ;
#133 = CIRCLE ( 'NONE', #132, 8.500000000000000000 ) ;
#134 = CYLINDRICAL_SURFACE ( 'NONE', #160, 8.500000000000000000 ) ;
#135 = FACE_OUTER_BOUND ( 'NONE', #57, .T. ) ;
#136 = FACE_BOUND ( 'NONE', #40, .T. ) ;
#137 = AXIS2_PLACEMENT_3D ( 'NONE', #149, #140, #139 ) ;
#138 = CARTESIAN_POINT ( 'NONE',  ( 14.00000000000000000, 0.0000000000000000000, 0.0000000000000000000 ) ) ;
#139 = DIRECTION ( 'NONE',  ( 1.000000000000000000, 0.0000000000000000000, 0.0000000000000000000 ) ) ;
#140 = DIRECTION ( 'NONE',  ( 0.0000000000000000000, 0.0000000000000000000, 1.000000000000000000 ) ) ;
#141 = DIRECTION ( 'NONE',  ( 1.000000000000000000, 0.0000000000000000000, 0.0000000000000000000 ) ) ;
#142 = DIRECTION ( 'NONE',  ( 0.0000000000000000000, 0.0000000000000000000, 1.000000000000000000 ) ) ;
#143 = CYLINDRICAL_SURFACE ( 'NONE', #156, 14.00000000000000000 ) ;
#144 = FACE_OUTER_BOUND ( 'NONE', #3, .T. ) ;
#145 = AXIS2_PLACEMENT_3D ( 'NONE', #153, #130, #117 ) ;
#146 = CIRCLE ( 'NONE', #145, 14.00000000000000000 ) ;
#147 = DIRECTION ( 'NONE',  ( 1.000000000000000000, 0.0000000000000000000, 0.0000000000000000000 ) ) ;
#148 = DIRECTION ( 'NONE',  ( 0.0000000000000000000, 0.0000000000000000000, 1.000000000000000000 ) ) ;
#149 = CARTESIAN_POINT ( 'NONE',  ( 0.0000000000000000000, 0.0000000000000000000, -3.000000000000000000 ) ) ;
#150 = DIRECTION ( 'NONE',  ( 1.000000000000000000, 0.0000000000000000000, 0.0000000000000000000 ) ) ;
#151 = DIRECTION ( 'NONE',  ( 0.0000000000000000000, 0.0000000000000000000, 1.000000000000000000 ) ) ;
#152 = CARTESIAN_POINT ( 'NONE',  ( 0.0000000000000000000, 0.0000000000000000000, 0.0000000000000000000 ) ) ;
#153 = CARTESIAN_POINT ( 'NONE',  ( 0.0000000000000000000, 0.0000000000000000000, 0.0000000000000000000 ) ) ;
#154 = FACE_BOUND ( 'NONE', #56, .T. ) ;
#155 = CARTESIAN_POINT ( 'NONE',  ( 0.0000000000000000000, 0.0000000000000000000, -3.000000000000000000 ) ) ;
#156 = AXIS2_PLACEMENT_3D ( 'NONE', #155, #148, #147 ) ;
#157 = CARTESIAN_POINT ( 'NONE',  ( 8.500000000000000000, 0.0000000000000000000, 0.0000000000000000000 ) ) ;
#158 = CARTESIAN_POINT ( 'NONE',  ( 0.0000000000000000000, 0.0000000000000000000, 0.0000000000000000000 ) ) ;
#159 = CARTESIAN_POINT ( 'NONE',  ( 0.0000000000000000000, 0.0000000000000000000, -3.000000000000000000 ) ) ;
#160 = AXIS2_PLACEMENT_3D ( 'NONE', #159, #142, #141 ) ;
#161 = FACE_OUTER_BOUND ( 'NONE', #61, .T. ) ;
#162 = DIRECTION ( 'NONE',  ( 1.000000000000000000, 0.0000000000000000000, 0.0000000000000000000 ) ) ;
#163 = DIRECTION ( 'NONE',  ( 0.0000000000000000000, 0.0000000000000000000, 1.000000000000000000 ) ) ;
#164 = CARTESIAN_POINT ( 'NONE',  ( 0.0000000000000000000, 0.0000000000000000000, 0.0000000000000000000 ) ) ;
#165 = AXIS2_PLACEMENT_3D ( 'NONE', #164, #163, #162 ) ;
#166 = CIRCLE ( 'NONE', #165, 8.500000000000000000 ) ;
#167 = CARTESIAN_POINT ( 'NONE',  ( -14.00000000000000000, 1.714448895351328200E-015, -3.000000000000000000 ) ) ;
#168 =( NAMED_UNIT ( * ) PLANE_ANGLE_UNIT ( ) SI_UNIT ( $, .RADIAN. ) );
#169 =( LENGTH_UNIT ( ) NAMED_UNIT ( * ) SI_UNIT ( .MILLI., .METRE. ) );
#170 = PERSON_AND_ORGANIZATION_ROLE ( 'classification_officer' ) ;
#171 = DIRECTION ( 'NONE',  ( 1.000000000000000000, 0.0000000000000000000, 0.0000000000000000000 ) ) ;
#172 = DIRECTION ( 'NONE',  ( 0.0000000000000000000, 0.0000000000000000000, 1.000000000000000000 ) ) ;
#173 = CARTESIAN_POINT ( 'NONE',  ( 0.0000000000000000000, 0.0000000000000000000, 0.0000000000000000000 ) ) ;
#174 = AXIS2_PLACEMENT_3D ( 'NONE', #173, #172, #171 ) ;
#175 =( NAMED_UNIT ( * ) SI_UNIT ( $, .STERADIAN. ) SOLID_ANGLE_UNIT ( ) );
#176 = UNCERTAINTY_MEASURE_WITH_UNIT (LENGTH_MEASURE( 1.000000000000000100E-005 ), #169, 'distance_accuracy_value', 'NONE');
#177 = ADVANCED_BREP_SHAPE_REPRESENTATION ( '93849A109', ( #66, #174 ), #178 ) ;
#178 =( GEOMETRIC_REPRESENTATION_CONTEXT ( 3 ) GLOBAL_UNCERTAINTY_ASSIGNED_CONTEXT ( ( #176 ) ) GLOBAL_UNIT_ASSIGNED_CONTEXT ( ( #169, #168, #175 ) ) REPRESENTATION_CONTEXT ( 'NONE', 'WORKASPACE' ) );
#179 = DATE_AND_TIME ( #181, #180 ) ;
#180 = LOCAL_TIME ( 10, 50, 6.000000000000000000, #186 ) ;
#181 = CALENDAR_DATE ( 2009, 20, 11 ) ;
#182 = ORGANIZATION ( 'UNSPECIFIED', 'UNSPECIFIED', '' ) ;
#183 = DATE_TIME_ROLE ( 'creation_date' ) ;
#184 = CC_DESIGN_PERSON_AND_ORGANIZATION_ASSIGNMENT ( #208, #170, ( #209 ) ) ;
#185 = CC_DESIGN_DATE_AND_TIME_ASSIGNMENT ( #179, #183, ( #190 ) ) ;
#186 = COORDINATED_UNIVERSAL_TIME_OFFSET ( 6, 0, .BEHIND. ) ;
#187 = APPROVAL_STATUS ( 'not_yet_approved' ) ;
#188 = PERSON_AND_ORGANIZATION ( #121, #182 ) ;
#189 = PERSON_AND_ORGANIZATION_ROLE ( 'design_owner' ) ;
#190 = PRODUCT_DEFINITION ( 'UNKNOWN', '', #220, #207 ) ;
#191 = PERSON_AND_ORGANIZATION ( #121, #182 ) ;
#192 = APPROVAL ( #187, 'UNSPECIFIED' ) ;
#193 = CC_DESIGN_PERSON_AND_ORGANIZATION_ASSIGNMENT ( #191, #189, ( #73 ) ) ;
#194 = APPROVAL_PERSON_ORGANIZATION ( #188, #192, #195 ) ;
#195 = APPROVAL_ROLE ( '' ) ;
#196 = CC_DESIGN_PERSON_AND_ORGANIZATION_ASSIGNMENT ( #198, #197, ( #190 ) ) ;
#197 = PERSON_AND_ORGANIZATION_ROLE ( 'creator' ) ;
#198 = PERSON_AND_ORGANIZATION ( #121, #182 ) ;
#199 = CC_DESIGN_APPROVAL ( #192, ( #190 ) ) ;
#200 = APPROVAL_DATE_TIME ( #202, #192 ) ;
#201 = CALENDAR_DATE ( 2009, 20, 11 ) ;
#202 = DATE_AND_TIME ( #201, #203 ) ;
#203 = LOCAL_TIME ( 10, 50, 6.000000000000000000, #204 ) ;
#204 = COORDINATED_UNIVERSAL_TIME_OFFSET ( 6, 0, .BEHIND. ) ;
#205 = APPLICATION_CONTEXT ( 'configuration controlled 3d designs of mechanical parts and assemblies' ) ;
#206 = APPLICATION_PROTOCOL_DEFINITION ( 'international standard', 'config_control_design', 1994, #205 ) ;
#207 = DESIGN_CONTEXT ( 'detailed design', #205, 'design' ) ;
#208 = PERSON_AND_ORGANIZATION ( #121, #182 ) ;
#209 = SECURITY_CLASSIFICATION ( '', '', #210 ) ;
#210 = SECURITY_CLASSIFICATION_LEVEL ( 'unclassified' ) ;
#211 = CC_DESIGN_PERSON_AND_ORGANIZATION_ASSIGNMENT ( #213, #212, ( #220 ) ) ;
#212 = PERSON_AND_ORGANIZATION_ROLE ( 'design_supplier' ) ;
#213 = PERSON_AND_ORGANIZATION ( #121, #182 ) ;
#214 = CC_DESIGN_PERSON_AND_ORGANIZATION_ASSIGNMENT ( #216, #215, ( #220 ) ) ;
#215 = PERSON_AND_ORGANIZATION_ROLE ( 'creator' ) ;
#216 = PERSON_AND_ORGANIZATION ( #121, #182 ) ;
#217 = APPROVAL ( #218, 'UNSPECIFIED' ) ;
#218 = APPROVAL_STATUS ( 'not_yet_approved' ) ;
#219 = PERSON_AND_ORGANIZATION ( #121, #182 ) ;
#220 = PRODUCT_DEFINITION_FORMATION_WITH_SPECIFIED_SOURCE ( 'ANY', '', #73, .NOT_KNOWN. ) ;
#221 = CC_DESIGN_APPROVAL ( #217, ( #220 ) ) ;
#222 = APPROVAL_DATE_TIME ( #223, #217 ) ;
#223 = DATE_AND_TIME ( #224, #225 ) ;
#224 = CALENDAR_DATE ( 2009, 20, 11 ) ;
#225 = LOCAL_TIME ( 10, 50, 6.000000000000000000, #226 ) ;
#226 = COORDINATED_UNIVERSAL_TIME_OFFSET ( 6, 0, .BEHIND. ) ;
#227 = APPROVAL_PERSON_ORGANIZATION ( #219, #217, #228 ) ;
#228 = APPROVAL_ROLE ( '' ) ;
#229 = COORDINATED_UNIVERSAL_TIME_OFFSET ( 6, 0, .BEHIND. ) ;
#230 = APPROVAL_PERSON_ORGANIZATION ( #236, #235, #238 ) ;
#231 = CC_DESIGN_DATE_AND_TIME_ASSIGNMENT ( #232, #234, ( #209 ) ) ;
#232 = DATE_AND_TIME ( #245, #233 ) ;
#233 = LOCAL_TIME ( 10, 50, 6.000000000000000000, #240 ) ;
#234 = DATE_TIME_ROLE ( 'classification_date' ) ;
#235 = APPROVAL ( #239, 'UNSPECIFIED' ) ;
#236 = PERSON_AND_ORGANIZATION ( #121, #182 ) ;
#237 = CC_DESIGN_APPROVAL ( #235, ( #209 ) ) ;
#238 = APPROVAL_ROLE ( '' ) ;
#239 = APPROVAL_STATUS ( 'not_yet_approved' ) ;
#240 = COORDINATED_UNIVERSAL_TIME_OFFSET ( 6, 0, .BEHIND. ) ;
#241 = APPROVAL_DATE_TIME ( #242, #235 ) ;
#242 = DATE_AND_TIME ( #243, #244 ) ;
#243 = CALENDAR_DATE ( 2009, 20, 11 ) ;
#244 = LOCAL_TIME ( 10, 50, 6.000000000000000000, #229 ) ;
#245 = CALENDAR_DATE ( 2009, 20, 11 ) ;
#246 = PRODUCT_DEFINITION_SHAPE ( 'NONE', 'NONE',  #190 ) ;
#247 = SHAPE_DEFINITION_REPRESENTATION ( #246, #177 ) ;
#248 = CC_DESIGN_SECURITY_CLASSIFICATION ( #209, ( #220 ) ) ;
#249 = PRODUCT_RELATED_PRODUCT_CATEGORY ( 'detail', '', ( #73 ) ) ;
ENDSEC;
END-ISO-10303-21;
