ISO-10303-21;
HEADER;
FILE_DESCRIPTION (( 'STEP AP203' ),
    '1' );
FILE_NAME ('9713K51.step',
    '2008-01-31T17:59:11',
    ( '' ),
    ( '' ),
    'SwSTEP 2.0',
    'SolidWorks 2006233',
    '' );
FILE_SCHEMA (( 'CONFIG_CONTROL_DESIGN' ));
ENDSEC;

DATA;
#1 = CC_DESIGN_PERSON_AND_ORGANIZATION_ASSIGNMENT ( #63, #58, ( #61 ) ) ;
#2 =( CONVERSION_BASED_UNIT ( 'INCH', #6 ) LENGTH_UNIT ( ) NAMED_UNIT ( #42 ) );
#3 = CC_DESIGN_DATE_AND_TIME_ASSIGNMENT ( #10, #8, ( #277 ) ) ;
#4 = CALENDAR_DATE ( 2008, 31, 1 ) ;
#5 = LOCAL_TIME ( 11, 59, 11.00000000000000000, #9 ) ;
#6 = LENGTH_MEASURE_WITH_UNIT ( LENGTH_MEASURE( 0.02539999999999999900 ), #43 );
#7 =( NAMED_UNIT ( * ) PLANE_ANGLE_UNIT ( ) SI_UNIT ( $, .RADIAN. ) );
#8 = DATE_TIME_ROLE ( 'creation_date' ) ;
#9 = COORDINATED_UNIVERSAL_TIME_OFFSET ( 6, 0, .BEHIND. ) ;
#10 = DATE_AND_TIME ( #4, #5 ) ;
#11 =( NAMED_UNIT ( * ) SI_UNIT ( $, .STERADIAN. ) SOLID_ANGLE_UNIT ( ) );
#12 =( GEOMETRIC_REPRESENTATION_CONTEXT ( 3 ) GLOBAL_UNCERTAINTY_ASSIGNED_CONTEXT ( ( #14 ) ) GLOBAL_UNIT_ASSIGNED_CONTEXT ( ( #2, #7, #11 ) ) REPRESENTATION_CONTEXT ( 'NONE', 'WORKASPACE' ) );
#13 = ADVANCED_BREP_SHAPE_REPRESENTATION ( '9713K51', ( #80, #17 ), #12 ) ;
#14 = UNCERTAINTY_MEASURE_WITH_UNIT (LENGTH_MEASURE( 1.000000000000000100E-005 ), #2, 'distance_accuracy_value', 'NONE');
#15 = DIRECTION ( 'NONE',  ( 1.000000000000000000, 0.0000000000000000000, 0.0000000000000000000 ) ) ;
#16 = DIRECTION ( 'NONE',  ( 0.0000000000000000000, 0.0000000000000000000, 1.000000000000000000 ) ) ;
#17 = AXIS2_PLACEMENT_3D ( 'NONE', #18, #16, #15 ) ;
#18 = CARTESIAN_POINT ( 'NONE',  ( 0.0000000000000000000, 0.0000000000000000000, 0.0000000000000000000 ) ) ;
#19 = PRODUCT ( '9713K51', '9713K51', '', ( #21 ) ) ;
#20 = APPLICATION_PROTOCOL_DEFINITION ( 'international standard', 'config_control_design', 1994, #22 ) ;
#21 = MECHANICAL_CONTEXT ( 'NONE', #22, 'mechanical' ) ;
#22 = APPLICATION_CONTEXT ( 'configuration controlled 3d designs of mechanical parts and assemblies' ) ;
#23 = DIRECTION ( 'NONE',  ( 0.0000000000000000000, 1.000000000000000000, 0.0000000000000000000 ) ) ;
#24 = CARTESIAN_POINT ( 'NONE',  ( 0.0000000000000000000, 0.01299999999999995400, 0.0000000000000000000 ) ) ;
#25 = CIRCLE ( 'NONE', #51, 0.09258747073125990500 ) ;
#26 = LINE ( 'NONE', #41, #40 ) ;
#27 = DIRECTION ( 'NONE',  ( 0.0000000000000000000, 0.0000000000000000000, 1.000000000000000000 ) ) ;
#28 = CONICAL_SURFACE ( 'NONE', #50, 0.04741252926874164200, 0.1307334049644698900 ) ;
#29 = FACE_OUTER_BOUND ( 'NONE', #126, .T. ) ;
#30 = CONICAL_SURFACE ( 'NONE', #31, 0.04650000000000003400, 1.440062921830532300 ) ;
#31 = AXIS2_PLACEMENT_3D ( 'NONE', #47, #46, #45 ) ;
#32 = FACE_OUTER_BOUND ( 'NONE', #135, .T. ) ;
#33 = DIRECTION ( 'NONE',  ( 1.214196340259405900E-016, -0.1303613241058379500, 0.9914665527275101600 ) ) ;
#34 = VECTOR ( 'NONE', #33, 39.37007874015748100 ) ;
#35 = CARTESIAN_POINT ( 'NONE',  ( 5.694607616035196800E-018, 0.006059734130907447000, 0.04650000000000003400 ) ) ;
#36 = CARTESIAN_POINT ( 'NONE',  ( 0.0000000000000000000, -4.481938114605433800E-017, 0.0000000000000000000 ) ) ;
#37 = LINE ( 'NONE', #35, #34 ) ;
#38 = CARTESIAN_POINT ( 'NONE',  ( 0.0000000000000000000, -4.481938114605433800E-017, 0.09258747073125990500 ) ) ;
#39 = DIRECTION ( 'NONE',  ( 0.0000000000000000000, 0.9914665527274962900, 0.1303613241059425900 ) ) ;
#40 = VECTOR ( 'NONE', #39, 39.37007874015748900 ) ;
#41 = CARTESIAN_POINT ( 'NONE',  ( 0.0000000000000000000, 0.01299999999999995400, 0.04741252926874164200 ) ) ;
#42 = DIMENSIONAL_EXPONENTS ( 1.000000000000000000, 0.0000000000000000000, 0.0000000000000000000, 0.0000000000000000000, 0.0000000000000000000, 0.0000000000000000000, 0.0000000000000000000 ) ;
#43 =( LENGTH_UNIT ( ) NAMED_UNIT ( * ) SI_UNIT ( $, .METRE. ) );
#44 = PERSON ( 'UNSPECIFIED', 'UNSPECIFIED', 'UNSPECIFIED', ('UNSPECIFIED'), ('UNSPECIFIED'), ('UNSPECIFIED') ) ;
#45 = DIRECTION ( 'NONE',  ( 0.0000000000000000000, 0.0000000000000000000, -1.000000000000000000 ) ) ;
#46 = DIRECTION ( 'NONE',  ( 0.0000000000000000000, -1.000000000000000000, 0.0000000000000000000 ) ) ;
#47 = CARTESIAN_POINT ( 'NONE',  ( 0.0000000000000000000, 0.006059734130907447000, 0.0000000000000000000 ) ) ;
#48 = DIRECTION ( 'NONE',  ( 0.0000000000000000000, 0.0000000000000000000, -1.000000000000000000 ) ) ;
#49 = DIRECTION ( 'NONE',  ( 0.0000000000000000000, -1.000000000000000000, 0.0000000000000000000 ) ) ;
#50 = AXIS2_PLACEMENT_3D ( 'NONE', #24, #23, #27 ) ;
#51 = AXIS2_PLACEMENT_3D ( 'NONE', #36, #49, #48 ) ;
#52 = CC_DESIGN_PERSON_AND_ORGANIZATION_ASSIGNMENT ( #54, #53, ( #277 ) ) ;
#53 = PERSON_AND_ORGANIZATION_ROLE ( 'creator' ) ;
#54 = PERSON_AND_ORGANIZATION ( #44, #286 ) ;
#55 = DATE_AND_TIME ( #56, #57 ) ;
#56 = CALENDAR_DATE ( 2008, 31, 1 ) ;
#57 = LOCAL_TIME ( 11, 59, 11.00000000000000000, #67 ) ;
#58 = PERSON_AND_ORGANIZATION_ROLE ( 'creator' ) ;
#59 = APPROVAL_ROLE ( '' ) ;
#60 = APPROVAL_STATUS ( 'not_yet_approved' ) ;
#61 = PRODUCT_DEFINITION_FORMATION_WITH_SPECIFIED_SOURCE ( 'ANY', '', #19, .NOT_KNOWN. ) ;
#62 = APPROVAL ( #60, 'UNSPECIFIED' ) ;
#63 = PERSON_AND_ORGANIZATION ( #44, #286 ) ;
#64 = CC_DESIGN_APPROVAL ( #62, ( #61 ) ) ;
#65 = APPROVAL_DATE_TIME ( #55, #62 ) ;
#66 = PERSON_AND_ORGANIZATION ( #44, #286 ) ;
#67 = COORDINATED_UNIVERSAL_TIME_OFFSET ( 6, 0, .BEHIND. ) ;
#68 = APPROVAL_PERSON_ORGANIZATION ( #66, #62, #59 ) ;
#69 = CLOSED_SHELL ( 'NONE', ( #106, #153, #124, #128, #121, #93, #79, #74 ) ) ;
#70 = ORIENTED_EDGE ( 'NONE', *, *, #100, .F. ) ;
#71 = ORIENTED_EDGE ( 'NONE', *, *, #98, .T. ) ;
#72 = EDGE_LOOP ( 'NONE', ( #137, #84, #99, #90 ) ) ;
#73 = ORIENTED_EDGE ( 'NONE', *, *, #97, .T. ) ;
#74 = ADVANCED_FACE ( 'NONE', ( #189 ), #195, .T. ) ;
#75 = EDGE_LOOP ( 'NONE', ( #77, #71, #73, #70 ) ) ;
#76 = ORIENTED_EDGE ( 'NONE', *, *, #81, .F. ) ;
#77 = ORIENTED_EDGE ( 'NONE', *, *, #83, .F. ) ;
#78 = EDGE_LOOP ( 'NONE', ( #107, #102, #103, #104 ) ) ;
#79 = ADVANCED_FACE ( 'NONE', ( #190 ), #155, .T. ) ;
#80 = MANIFOLD_SOLID_BREP ( 'NONE', #69 ) ;
#81 = EDGE_CURVE ( 'NONE', #82, #85, #157, .T. ) ;
#82 = VERTEX_POINT ( 'NONE', #163 ) ;
#83 = EDGE_CURVE ( 'NONE', #85, #87, #180, .T. ) ;
#84 = ORIENTED_EDGE ( 'NONE', *, *, #83, .T. ) ;
#85 = VERTEX_POINT ( 'NONE', #182 ) ;
#86 = ORIENTED_EDGE ( 'NONE', *, *, #96, .T. ) ;
#87 = VERTEX_POINT ( 'NONE', #166 ) ;
#88 = VERTEX_POINT ( 'NONE', #181 ) ;
#89 = EDGE_CURVE ( 'NONE', #91, #87, #164, .T. ) ;
#90 = ORIENTED_EDGE ( 'NONE', *, *, #97, .F. ) ;
#91 = VERTEX_POINT ( 'NONE', #165 ) ;
#92 = VERTEX_POINT ( 'NONE', #168 ) ;
#93 = ADVANCED_FACE ( 'NONE', ( #177 ), #173, .F. ) ;
#94 = EDGE_LOOP ( 'NONE', ( #86, #95, #105, #131 ) ) ;
#95 = ORIENTED_EDGE ( 'NONE', *, *, #101, .T. ) ;
#96 = EDGE_CURVE ( 'NONE', #88, #92, #188, .T. ) ;
#97 = EDGE_CURVE ( 'NONE', #82, #91, #199, .T. ) ;
#98 = EDGE_CURVE ( 'NONE', #85, #82, #212, .T. ) ;
#99 = ORIENTED_EDGE ( 'NONE', *, *, #89, .F. ) ;
#100 = EDGE_CURVE ( 'NONE', #87, #91, #203, .T. ) ;
#101 = EDGE_CURVE ( 'NONE', #92, #82, #213, .T. ) ;
#102 = ORIENTED_EDGE ( 'NONE', *, *, #125, .F. ) ;
#103 = ORIENTED_EDGE ( 'NONE', *, *, #117, .T. ) ;
#104 = ORIENTED_EDGE ( 'NONE', *, *, #100, .T. ) ;
#105 = ORIENTED_EDGE ( 'NONE', *, *, #98, .F. ) ;
#106 = ADVANCED_FACE ( 'NONE', ( #200 ), #144, .F. ) ;
#107 = ORIENTED_EDGE ( 'NONE', *, *, #119, .F. ) ;
#108 = EDGE_LOOP ( 'NONE', ( #111, #109, #127, #130 ) ) ;
#109 = ORIENTED_EDGE ( 'NONE', *, *, #110, .F. ) ;
#110 = EDGE_CURVE ( 'NONE', #92, #88, #242, .T. ) ;
#111 = ORIENTED_EDGE ( 'NONE', *, *, #138, .F. ) ;
#112 = ORIENTED_EDGE ( 'NONE', *, *, #120, .F. ) ;
#113 = EDGE_CURVE ( 'NONE', #92, #115, #224, .T. ) ;
#114 = ORIENTED_EDGE ( 'NONE', *, *, #113, .F. ) ;
#115 = VERTEX_POINT ( 'NONE', #232 ) ;
#116 = EDGE_LOOP ( 'NONE', ( #112, #118, #122, #123 ) ) ;
#117 = EDGE_CURVE ( 'NONE', #133, #87, #221, .T. ) ;
#118 = ORIENTED_EDGE ( 'NONE', *, *, #119, .T. ) ;
#119 = EDGE_CURVE ( 'NONE', #115, #91, #244, .T. ) ;
#120 = EDGE_CURVE ( 'NONE', #115, #133, #225, .T. ) ;
#121 = ADVANCED_FACE ( 'NONE', ( #226 ), #222, .T. ) ;
#122 = ORIENTED_EDGE ( 'NONE', *, *, #89, .T. ) ;
#123 = ORIENTED_EDGE ( 'NONE', *, *, #117, .F. ) ;
#124 = ADVANCED_FACE ( 'NONE', ( #246 ), #154, .T. ) ;
#125 = EDGE_CURVE ( 'NONE', #133, #115, #25, .T. ) ;
#126 = EDGE_LOOP ( 'NONE', ( #129, #134, #136, #76 ) ) ;
#127 = ORIENTED_EDGE ( 'NONE', *, *, #113, .T. ) ;
#128 = ADVANCED_FACE ( 'NONE', ( #29 ), #28, .F. ) ;
#129 = ORIENTED_EDGE ( 'NONE', *, *, #101, .F. ) ;
#130 = ORIENTED_EDGE ( 'NONE', *, *, #120, .T. ) ;
#131 = ORIENTED_EDGE ( 'NONE', *, *, #132, .F. ) ;
#132 = EDGE_CURVE ( 'NONE', #88, #85, #26, .T. ) ;
#133 = VERTEX_POINT ( 'NONE', #38 ) ;
#134 = ORIENTED_EDGE ( 'NONE', *, *, #110, .T. ) ;
#135 = EDGE_LOOP ( 'NONE', ( #147, #142, #143, #114 ) ) ;
#136 = ORIENTED_EDGE ( 'NONE', *, *, #132, .T. ) ;
#137 = ORIENTED_EDGE ( 'NONE', *, *, #81, .T. ) ;
#138 = EDGE_CURVE ( 'NONE', #88, #133, #37, .T. ) ;
#139 = CARTESIAN_POINT ( 'NONE',  ( 0.0000000000000000000, 0.006940265869092455300, 0.0000000000000000000 ) ) ;
#140 = CARTESIAN_POINT ( 'NONE',  ( 0.0000000000000000000, 0.006059734130907447000, 0.0000000000000000000 ) ) ;
#141 = DIRECTION ( 'NONE',  ( 0.0000000000000000000, -1.000000000000000000, 0.0000000000000000000 ) ) ;
#142 = ORIENTED_EDGE ( 'NONE', *, *, #138, .T. ) ;
#143 = ORIENTED_EDGE ( 'NONE', *, *, #125, .T. ) ;
#144 = CONICAL_SURFACE ( 'NONE', #148, 0.04650000000000003400, 1.440062921830532300 ) ;
#145 = DIRECTION ( 'NONE',  ( 0.0000000000000000000, -1.000000000000000000, 0.0000000000000000000 ) ) ;
#146 = DIRECTION ( 'NONE',  ( 0.0000000000000000000, 0.0000000000000000000, -1.000000000000000000 ) ) ;
#147 = ORIENTED_EDGE ( 'NONE', *, *, #96, .F. ) ;
#148 = AXIS2_PLACEMENT_3D ( 'NONE', #140, #145, #150 ) ;
#149 = AXIS2_PLACEMENT_3D ( 'NONE', #139, #141, #146 ) ;
#150 = DIRECTION ( 'NONE',  ( 0.0000000000000000000, 0.0000000000000000000, -1.000000000000000000 ) ) ;
#151 = CARTESIAN_POINT ( 'NONE',  ( 0.0000000000000000000, -4.481938114605433800E-017, 0.0000000000000000000 ) ) ;
#152 = AXIS2_PLACEMENT_3D ( 'NONE', #151, #161, #160 ) ;
#153 = ADVANCED_FACE ( 'NONE', ( #32 ), #30, .F. ) ;
#154 = CONICAL_SURFACE ( 'NONE', #152, 0.09258747073125990500, 0.1307334049642523700 ) ;
#155 = CONICAL_SURFACE ( 'NONE', #149, 0.09349999999999997200, 1.440062921830527900 ) ;
#156 = DIRECTION ( 'NONE',  ( 0.0000000000000000000, -1.000000000000000000, 0.0000000000000000000 ) ) ;
#157 = CIRCLE ( 'NONE', #162, 0.04741252926874164200 ) ;
#158 = DIRECTION ( 'NONE',  ( 0.0000000000000000000, 0.0000000000000000000, -1.000000000000000000 ) ) ;
#159 = CARTESIAN_POINT ( 'NONE',  ( 0.0000000000000000000, 0.01299999999999995400, 0.0000000000000000000 ) ) ;
#160 = DIRECTION ( 'NONE',  ( 0.0000000000000000000, 0.0000000000000000000, 1.000000000000000000 ) ) ;
#161 = DIRECTION ( 'NONE',  ( 0.0000000000000000000, 1.000000000000000000, 0.0000000000000000000 ) ) ;
#162 = AXIS2_PLACEMENT_3D ( 'NONE', #159, #156, #158 ) ;
#163 = CARTESIAN_POINT ( 'NONE',  ( 5.806360220844465100E-018, 0.01299999999999995400, -0.04741252926874164200 ) ) ;
#164 = CIRCLE ( 'NONE', #172, 0.09349999999999997200 ) ;
#165 = CARTESIAN_POINT ( 'NONE',  ( 1.145044757202774900E-017, 0.006940265869092455300, -0.09349999999999997200 ) ) ;
#166 = CARTESIAN_POINT ( 'NONE',  ( 0.0000000000000000000, 0.006940265869092455300, 0.09349999999999997200 ) ) ;
#167 = DIRECTION ( 'NONE',  ( 0.0000000000000000000, 0.0000000000000000000, -1.000000000000000000 ) ) ;
#168 = CARTESIAN_POINT ( 'NONE',  ( 0.0000000000000000000, 0.006059734130907447000, -0.04650000000000003400 ) ) ;
#169 = DIRECTION ( 'NONE',  ( 0.0000000000000000000, 0.0000000000000000000, -1.000000000000000000 ) ) ;
#170 = DIRECTION ( 'NONE',  ( 0.0000000000000000000, -1.000000000000000000, 0.0000000000000000000 ) ) ;
#171 = CARTESIAN_POINT ( 'NONE',  ( 0.0000000000000000000, 0.006940265869092455300, 0.0000000000000000000 ) ) ;
#172 = AXIS2_PLACEMENT_3D ( 'NONE', #171, #170, #169 ) ;
#173 = CONICAL_SURFACE ( 'NONE', #178, 0.04741252926874164200, 0.1307334049644698900 ) ;
#174 = DIRECTION ( 'NONE',  ( 0.0000000000000000000, 0.0000000000000000000, 1.000000000000000000 ) ) ;
#175 = DIRECTION ( 'NONE',  ( 0.0000000000000000000, 1.000000000000000000, 0.0000000000000000000 ) ) ;
#176 = CARTESIAN_POINT ( 'NONE',  ( 0.0000000000000000000, 0.01299999999999995400, 0.0000000000000000000 ) ) ;
#177 = FACE_OUTER_BOUND ( 'NONE', #94, .T. ) ;
#178 = AXIS2_PLACEMENT_3D ( 'NONE', #176, #175, #174 ) ;
#179 = CARTESIAN_POINT ( 'NONE',  ( 1.145044757202774900E-017, 0.006940265869092455300, 0.09349999999999997200 ) ) ;
#180 = LINE ( 'NONE', #179, #184 ) ;
#181 = CARTESIAN_POINT ( 'NONE',  ( 8.516651291626932500E-018, 0.006059734130907447000, 0.04650000000000003400 ) ) ;
#182 = CARTESIAN_POINT ( 'NONE',  ( 0.0000000000000000000, 0.01299999999999995400, 0.04741252926874164200 ) ) ;
#183 = DIRECTION ( 'NONE',  ( 1.214196340259405100E-016, -0.1303613241058423600, 0.9914665527275096100 ) ) ;
#184 = VECTOR ( 'NONE', #183, 39.37007874015748100 ) ;
#185 = DIRECTION ( 'NONE',  ( 0.0000000000000000000, -1.000000000000000000, 0.0000000000000000000 ) ) ;
#186 = CARTESIAN_POINT ( 'NONE',  ( 0.0000000000000000000, 0.006059734130907447000, 0.0000000000000000000 ) ) ;
#187 = AXIS2_PLACEMENT_3D ( 'NONE', #186, #185, #167 ) ;
#188 = CIRCLE ( 'NONE', #187, 0.04650000000000003400 ) ;
#189 = FACE_OUTER_BOUND ( 'NONE', #75, .T. ) ;
#190 = FACE_OUTER_BOUND ( 'NONE', #72, .T. ) ;
#191 = DIRECTION ( 'NONE',  ( 0.0000000000000000000, 0.0000000000000000000, -1.000000000000000000 ) ) ;
#192 = DIRECTION ( 'NONE',  ( 0.0000000000000000000, -1.000000000000000000, 0.0000000000000000000 ) ) ;
#193 = CARTESIAN_POINT ( 'NONE',  ( 0.0000000000000000000, 0.006940265869092455300, 0.0000000000000000000 ) ) ;
#194 = AXIS2_PLACEMENT_3D ( 'NONE', #193, #192, #191 ) ;
#195 = CONICAL_SURFACE ( 'NONE', #194, 0.09349999999999997200, 1.440062921830527900 ) ;
#196 = DIRECTION ( 'NONE',  ( 1.596465782989533000E-017, 0.9914665527274962900, -0.1303613241059425900 ) ) ;
#197 = VECTOR ( 'NONE', #196, 39.37007874015748900 ) ;
#198 = CARTESIAN_POINT ( 'NONE',  ( 5.806360220844465100E-018, 0.01299999999999995400, -0.04741252926874164200 ) ) ;
#199 = LINE ( 'NONE', #204, #205 ) ;
#200 = FACE_OUTER_BOUND ( 'NONE', #108, .T. ) ;
#201 = DIRECTION ( 'NONE',  ( 0.0000000000000000000, -1.000000000000000000, 0.0000000000000000000 ) ) ;
#202 = AXIS2_PLACEMENT_3D ( 'NONE', #209, #201, #214 ) ;
#203 = CIRCLE ( 'NONE', #202, 0.09349999999999997200 ) ;
#204 = CARTESIAN_POINT ( 'NONE',  ( 0.0000000000000000000, 0.006940265869092455300, -0.09349999999999997200 ) ) ;
#205 = VECTOR ( 'NONE', #206, 39.37007874015748100 ) ;
#206 = DIRECTION ( 'NONE',  ( 0.0000000000000000000, -0.1303613241058423600, -0.9914665527275096100 ) ) ;
#207 = DIRECTION ( 'NONE',  ( 0.0000000000000000000, 0.0000000000000000000, -1.000000000000000000 ) ) ;
#208 = DIRECTION ( 'NONE',  ( 0.0000000000000000000, -1.000000000000000000, 0.0000000000000000000 ) ) ;
#209 = CARTESIAN_POINT ( 'NONE',  ( 0.0000000000000000000, 0.006940265869092455300, 0.0000000000000000000 ) ) ;
#210 = CARTESIAN_POINT ( 'NONE',  ( 0.0000000000000000000, 0.01299999999999995400, 0.0000000000000000000 ) ) ;
#211 = AXIS2_PLACEMENT_3D ( 'NONE', #210, #208, #207 ) ;
#212 = CIRCLE ( 'NONE', #211, 0.04741252926874164200 ) ;
#213 = LINE ( 'NONE', #198, #197 ) ;
#214 = DIRECTION ( 'NONE',  ( 0.0000000000000000000, 0.0000000000000000000, -1.000000000000000000 ) ) ;
#215 = DIRECTION ( 'NONE',  ( 0.0000000000000000000, -1.000000000000000000, 0.0000000000000000000 ) ) ;
#216 = DIRECTION ( 'NONE',  ( 1.596465782986892200E-017, 0.9914665527275248200, -0.1303613241057269600 ) ) ;
#217 = VECTOR ( 'NONE', #216, 39.37007874015748900 ) ;
#218 = CARTESIAN_POINT ( 'NONE',  ( 1.133869496721866800E-017, -4.481938114605433800E-017, -0.09258747073125990500 ) ) ;
#219 = VECTOR ( 'NONE', #243, 39.37007874015748900 ) ;
#220 = CARTESIAN_POINT ( 'NONE',  ( 0.0000000000000000000, -4.481938114605433800E-017, 0.09258747073125990500 ) ) ;
#221 = LINE ( 'NONE', #220, #219 ) ;
#222 = CONICAL_SURFACE ( 'NONE', #235, 0.09258747073125990500, 0.1307334049642523700 ) ;
#223 = CARTESIAN_POINT ( 'NONE',  ( 0.0000000000000000000, -4.481938114605433800E-017, 0.0000000000000000000 ) ) ;
#224 = LINE ( 'NONE', #229, #236 ) ;
#225 = CIRCLE ( 'NONE', #241, 0.09258747073125990500 ) ;
#226 = FACE_OUTER_BOUND ( 'NONE', #78, .T. ) ;
#227 = PRODUCT_DEFINITION_SHAPE ( 'NONE', 'NONE',  #277 ) ;
#228 = DIRECTION ( 'NONE',  ( 0.0000000000000000000, 0.0000000000000000000, -1.000000000000000000 ) ) ;
#229 = CARTESIAN_POINT ( 'NONE',  ( 0.0000000000000000000, 0.006059734130907447000, -0.04650000000000003400 ) ) ;
#230 = SHAPE_DEFINITION_REPRESENTATION ( #227, #13 ) ;
#231 = DIRECTION ( 'NONE',  ( 0.0000000000000000000, -0.1303613241058379500, -0.9914665527275101600 ) ) ;
#232 = CARTESIAN_POINT ( 'NONE',  ( 1.139457126962320900E-017, -4.481938114605433800E-017, -0.09258747073125990500 ) ) ;
#233 = DIRECTION ( 'NONE',  ( 0.0000000000000000000, 0.0000000000000000000, 1.000000000000000000 ) ) ;
#234 = DIRECTION ( 'NONE',  ( 0.0000000000000000000, 1.000000000000000000, 0.0000000000000000000 ) ) ;
#235 = AXIS2_PLACEMENT_3D ( 'NONE', #223, #234, #233 ) ;
#236 = VECTOR ( 'NONE', #231, 39.37007874015748100 ) ;
#237 = AXIS2_PLACEMENT_3D ( 'NONE', #245, #215, #228 ) ;
#238 = DIRECTION ( 'NONE',  ( 0.0000000000000000000, 0.0000000000000000000, -1.000000000000000000 ) ) ;
#239 = DIRECTION ( 'NONE',  ( 0.0000000000000000000, -1.000000000000000000, 0.0000000000000000000 ) ) ;
#240 = CARTESIAN_POINT ( 'NONE',  ( 0.0000000000000000000, -4.481938114605433800E-017, 0.0000000000000000000 ) ) ;
#241 = AXIS2_PLACEMENT_3D ( 'NONE', #240, #239, #238 ) ;
#242 = CIRCLE ( 'NONE', #237, 0.04650000000000003400 ) ;
#243 = DIRECTION ( 'NONE',  ( 0.0000000000000000000, 0.9914665527275248200, 0.1303613241057269600 ) ) ;
#244 = LINE ( 'NONE', #218, #217 ) ;
#245 = CARTESIAN_POINT ( 'NONE',  ( 0.0000000000000000000, 0.006059734130907447000, 0.0000000000000000000 ) ) ;
#246 = FACE_OUTER_BOUND ( 'NONE', #116, .T. ) ;
#247 = PERSON_AND_ORGANIZATION_ROLE ( 'classification_officer' ) ;
#248 = SECURITY_CLASSIFICATION_LEVEL ( 'unclassified' ) ;
#249 = CC_DESIGN_PERSON_AND_ORGANIZATION_ASSIGNMENT ( #250, #247, ( #251 ) ) ;
#250 = PERSON_AND_ORGANIZATION ( #44, #286 ) ;
#251 = SECURITY_CLASSIFICATION ( '', '', #248 ) ;
#252 = PERSON_AND_ORGANIZATION ( #44, #286 ) ;
#253 = PERSON_AND_ORGANIZATION_ROLE ( 'design_supplier' ) ;
#254 = CC_DESIGN_PERSON_AND_ORGANIZATION_ASSIGNMENT ( #252, #253, ( #61 ) ) ;
#255 = CC_DESIGN_DATE_AND_TIME_ASSIGNMENT ( #273, #260, ( #251 ) ) ;
#256 = APPROVAL_STATUS ( 'not_yet_approved' ) ;
#257 = PRODUCT_RELATED_PRODUCT_CATEGORY ( 'detail', '', ( #19 ) ) ;
#258 = COORDINATED_UNIVERSAL_TIME_OFFSET ( 6, 0, .BEHIND. ) ;
#259 = CALENDAR_DATE ( 2008, 31, 1 ) ;
#260 = DATE_TIME_ROLE ( 'classification_date' ) ;
#261 = LOCAL_TIME ( 11, 59, 11.00000000000000000, #262 ) ;
#262 = COORDINATED_UNIVERSAL_TIME_OFFSET ( 6, 0, .BEHIND. ) ;
#263 = CC_DESIGN_SECURITY_CLASSIFICATION ( #251, ( #61 ) ) ;
#264 = CC_DESIGN_APPROVAL ( #269, ( #251 ) ) ;
#265 = APPROVAL_DATE_TIME ( #270, #269 ) ;
#266 = CALENDAR_DATE ( 2008, 31, 1 ) ;
#267 = PERSON_AND_ORGANIZATION ( #44, #286 ) ;
#268 = APPROVAL_ROLE ( '' ) ;
#269 = APPROVAL ( #256, 'UNSPECIFIED' ) ;
#270 = DATE_AND_TIME ( #266, #261 ) ;
#271 = APPROVAL_PERSON_ORGANIZATION ( #267, #269, #268 ) ;
#272 = LOCAL_TIME ( 11, 59, 11.00000000000000000, #258 ) ;
#273 = DATE_AND_TIME ( #259, #272 ) ;
#274 = PERSON_AND_ORGANIZATION ( #44, #286 ) ;
#275 = APPROVAL_STATUS ( 'not_yet_approved' ) ;
#276 = DESIGN_CONTEXT ( 'detailed design', #289, 'design' ) ;
#277 = PRODUCT_DEFINITION ( 'UNKNOWN', '', #61, #276 ) ;
#278 = APPROVAL ( #275, 'UNSPECIFIED' ) ;
#279 = APPROVAL_PERSON_ORGANIZATION ( #274, #278, #280 ) ;
#280 = APPROVAL_ROLE ( '' ) ;
#281 = DATE_AND_TIME ( #282, #283 ) ;
#282 = CALENDAR_DATE ( 2008, 31, 1 ) ;
#283 = LOCAL_TIME ( 11, 59, 11.00000000000000000, #285 ) ;
#284 = APPROVAL_DATE_TIME ( #281, #278 ) ;
#285 = COORDINATED_UNIVERSAL_TIME_OFFSET ( 6, 0, .BEHIND. ) ;
#286 = ORGANIZATION ( 'UNSPECIFIED', 'UNSPECIFIED', '' ) ;
#287 = APPLICATION_PROTOCOL_DEFINITION ( 'international standard', 'config_control_design', 1994, #289 ) ;
#288 = PERSON_AND_ORGANIZATION_ROLE ( 'design_owner' ) ;
#289 = APPLICATION_CONTEXT ( 'configuration controlled 3d designs of mechanical parts and assemblies' ) ;
#290 = CC_DESIGN_PERSON_AND_ORGANIZATION_ASSIGNMENT ( #291, #288, ( #19 ) ) ;
#291 = PERSON_AND_ORGANIZATION ( #44, #286 ) ;
#292 = CC_DESIGN_APPROVAL ( #278, ( #277 ) ) ;
ENDSEC;
END-ISO-10303-21;
