ISO-10303-21;
HEADER;
FILE_DESCRIPTION (( 'STEP AP203' ),
    '1' );
FILE_NAME ('94316A420.step',
    '2009-11-20T22:02:15',
    ( 'jim' ),
    ( '' ),
    'SwSTEP 2.0',
    'SolidWorks 2007',
    '' );
FILE_SCHEMA (( 'CONFIG_CONTROL_DESIGN' ));
ENDSEC;

DATA;
#1 = ORIENTED_EDGE ( 'NONE', *, *, #17, .F. ) ;
#2 = EDGE_LOOP ( 'NONE', ( #5, #3, #4, #6 ) ) ;
#3 = ORIENTED_EDGE ( 'NONE', *, *, #22, .F. ) ;
#4 = ORIENTED_EDGE ( 'NONE', *, *, #58, .T. ) ;
#5 = ORIENTED_EDGE ( 'NONE', *, *, #60, .F. ) ;
#6 = ORIENTED_EDGE ( 'NONE', *, *, #43, .T. ) ;
#7 = ADVANCED_FACE ( 'NONE', ( #137 ), #143, .F. ) ;
#8 = ORIENTED_EDGE ( 'NONE', *, *, #17, .T. ) ;
#9 = CLOSED_SHELL ( 'NONE', ( #29, #16, #11, #18, #26, #7 ) ) ;
#10 = ORIENTED_EDGE ( 'NONE', *, *, #51, .T. ) ;
#11 = ADVANCED_FACE ( 'NONE', ( #146 ), #103, .T. ) ;
#12 = ORIENTED_EDGE ( 'NONE', *, *, #57, .T. ) ;
#13 = EDGE_LOOP ( 'NONE', ( #12, #56, #50, #54 ) ) ;
#14 = VERTEX_POINT ( 'NONE', #104 ) ;
#15 = VERTEX_POINT ( 'NONE', #178 ) ;
#16 = ADVANCED_FACE ( 'NONE', ( #177 ), #139, .T. ) ;
#17 = EDGE_CURVE ( 'NONE', #52, #27, #141, .T. ) ;
#18 = ADVANCED_FACE ( 'NONE', ( #187, #186 ), #67, .F. ) ;
#19 = ORIENTED_EDGE ( 'NONE', *, *, #22, .T. ) ;
#20 = ORIENTED_EDGE ( 'NONE', *, *, #49, .T. ) ;
#21 = EDGE_LOOP ( 'NONE', ( #19, #23 ) ) ;
#22 = EDGE_CURVE ( 'NONE', #34, #33, #62, .T. ) ;
#23 = ORIENTED_EDGE ( 'NONE', *, *, #32, .T. ) ;
#24 = ORIENTED_EDGE ( 'NONE', *, *, #57, .F. ) ;
#25 = ORIENTED_EDGE ( 'NONE', *, *, #46, .F. ) ;
#26 = ADVANCED_FACE ( 'NONE', ( #222, #221 ), #220, .T. ) ;
#27 = VERTEX_POINT ( 'NONE', #215 ) ;
#28 = MANIFOLD_SOLID_BREP ( 'NONE', #9 ) ;
#29 = ADVANCED_FACE ( 'NONE', ( #214 ), #212, .F. ) ;
#30 = EDGE_CURVE ( 'NONE', #37, #35, #136, .T. ) ;
#31 = EDGE_LOOP ( 'NONE', ( #59, #39, #38, #36 ) ) ;
#32 = EDGE_CURVE ( 'NONE', #33, #34, #131, .T. ) ;
#33 = VERTEX_POINT ( 'NONE', #156 ) ;
#34 = VERTEX_POINT ( 'NONE', #155 ) ;
#35 = VERTEX_POINT ( 'NONE', #154 ) ;
#36 = ORIENTED_EDGE ( 'NONE', *, *, #58, .F. ) ;
#37 = VERTEX_POINT ( 'NONE', #153 ) ;
#38 = ORIENTED_EDGE ( 'NONE', *, *, #30, .T. ) ;
#39 = ORIENTED_EDGE ( 'NONE', *, *, #60, .T. ) ;
#40 = EDGE_LOOP ( 'NONE', ( #42, #44 ) ) ;
#41 = EDGE_LOOP ( 'NONE', ( #24, #25 ) ) ;
#42 = ORIENTED_EDGE ( 'NONE', *, *, #43, .F. ) ;
#43 = EDGE_CURVE ( 'NONE', #35, #37, #152, .T. ) ;
#44 = ORIENTED_EDGE ( 'NONE', *, *, #30, .F. ) ;
#45 = EDGE_LOOP ( 'NONE', ( #10, #8 ) ) ;
#46 = EDGE_CURVE ( 'NONE', #15, #14, #147, .T. ) ;
#47 = ORIENTED_EDGE ( 'NONE', *, *, #53, .F. ) ;
#48 = ORIENTED_EDGE ( 'NONE', *, *, #46, .T. ) ;
#49 = EDGE_CURVE ( 'NONE', #14, #27, #240, .T. ) ;
#50 = ORIENTED_EDGE ( 'NONE', *, *, #51, .F. ) ;
#51 = EDGE_CURVE ( 'NONE', #27, #52, #236, .T. ) ;
#52 = VERTEX_POINT ( 'NONE', #231 ) ;
#53 = EDGE_CURVE ( 'NONE', #15, #52, #230, .T. ) ;
#54 = ORIENTED_EDGE ( 'NONE', *, *, #49, .F. ) ;
#55 = EDGE_LOOP ( 'NONE', ( #47, #48, #20, #1 ) ) ;
#56 = ORIENTED_EDGE ( 'NONE', *, *, #53, .T. ) ;
#57 = EDGE_CURVE ( 'NONE', #14, #15, #226, .T. ) ;
#58 = EDGE_CURVE ( 'NONE', #34, #35, #204, .T. ) ;
#59 = ORIENTED_EDGE ( 'NONE', *, *, #32, .F. ) ;
#60 = EDGE_CURVE ( 'NONE', #33, #37, #200, .T. ) ;
#61 = CARTESIAN_POINT ( 'NONE',  ( 0.0000000000000000000, 0.0000000000000000000, -1.399999999999999900 ) ) ;
#62 = CIRCLE ( 'NONE', #225, 4.200000000000000200 ) ;
#63 = DIRECTION ( 'NONE',  ( 1.000000000000000000, 0.0000000000000000000, 0.0000000000000000000 ) ) ;
#64 = DIRECTION ( 'NONE',  ( 0.0000000000000000000, 0.0000000000000000000, 1.000000000000000000 ) ) ;
#65 = CARTESIAN_POINT ( 'NONE',  ( 0.0000000000000000000, 0.0000000000000000000, -1.399999999999999900 ) ) ;
#66 = AXIS2_PLACEMENT_3D ( 'NONE', #65, #64, #63 ) ;
#67 = PLANE ( 'NONE',  #66 ) ;
#68 = DATE_AND_TIME ( #176, #69 ) ;
#69 = LOCAL_TIME ( 16, 2, 15.00000000000000000, #70 ) ;
#70 = COORDINATED_UNIVERSAL_TIME_OFFSET ( 6, 0, .BEHIND. ) ;
#71 = CC_DESIGN_PERSON_AND_ORGANIZATION_ASSIGNMENT ( #73, #72, ( #74 ) ) ;
#72 = PERSON_AND_ORGANIZATION_ROLE ( 'classification_officer' ) ;
#73 = PERSON_AND_ORGANIZATION ( #125, #124 ) ;
#74 = SECURITY_CLASSIFICATION ( '', '', #75 ) ;
#75 = SECURITY_CLASSIFICATION_LEVEL ( 'unclassified' ) ;
#76 = CC_DESIGN_PERSON_AND_ORGANIZATION_ASSIGNMENT ( #78, #77, ( #93 ) ) ;
#77 = PERSON_AND_ORGANIZATION_ROLE ( 'design_supplier' ) ;
#78 = PERSON_AND_ORGANIZATION ( #125, #124 ) ;
#79 = CC_DESIGN_PERSON_AND_ORGANIZATION_ASSIGNMENT ( #81, #80, ( #93 ) ) ;
#80 = PERSON_AND_ORGANIZATION_ROLE ( 'creator' ) ;
#81 = PERSON_AND_ORGANIZATION ( #125, #124 ) ;
#82 = CC_DESIGN_APPROVAL ( #90, ( #93 ) ) ;
#83 = APPROVAL_DATE_TIME ( #84, #90 ) ;
#84 = DATE_AND_TIME ( #85, #86 ) ;
#85 = CALENDAR_DATE ( 2009, 20, 11 ) ;
#86 = LOCAL_TIME ( 16, 2, 15.00000000000000000, #87 ) ;
#87 = COORDINATED_UNIVERSAL_TIME_OFFSET ( 6, 0, .BEHIND. ) ;
#88 = APPROVAL_PERSON_ORGANIZATION ( #92, #90, #89 ) ;
#89 = APPROVAL_ROLE ( '' ) ;
#90 = APPROVAL ( #91, 'UNSPECIFIED' ) ;
#91 = APPROVAL_STATUS ( 'not_yet_approved' ) ;
#92 = PERSON_AND_ORGANIZATION ( #125, #124 ) ;
#93 = PRODUCT_DEFINITION_FORMATION_WITH_SPECIFIED_SOURCE ( 'ANY', '', #126, .NOT_KNOWN. ) ;
#94 = CC_DESIGN_DATE_AND_TIME_ASSIGNMENT ( #96, #95, ( #117 ) ) ;
#95 = DATE_TIME_ROLE ( 'creation_date' ) ;
#96 = DATE_AND_TIME ( #97, #98 ) ;
#97 = CALENDAR_DATE ( 2009, 20, 11 ) ;
#98 = LOCAL_TIME ( 16, 2, 15.00000000000000000, #99 ) ;
#99 = COORDINATED_UNIVERSAL_TIME_OFFSET ( 6, 0, .BEHIND. ) ;
#100 = CC_DESIGN_PERSON_AND_ORGANIZATION_ASSIGNMENT ( #105, #101, ( #117 ) ) ;
#101 = PERSON_AND_ORGANIZATION_ROLE ( 'creator' ) ;
#102 = AXIS2_PLACEMENT_3D ( 'NONE', #144, #180, #179 ) ;
#103 = CYLINDRICAL_SURFACE ( 'NONE', #102, 8.000000000000000000 ) ;
#104 = CARTESIAN_POINT ( 'NONE',  ( 8.000000000000000000, 0.0000000000000000000, -1.399999999999999900 ) ) ;
#105 = PERSON_AND_ORGANIZATION ( #125, #124 ) ;
#106 = CC_DESIGN_APPROVAL ( #114, ( #117 ) ) ;
#107 = APPROVAL_DATE_TIME ( #108, #114 ) ;
#108 = DATE_AND_TIME ( #109, #110 ) ;
#109 = CALENDAR_DATE ( 2009, 20, 11 ) ;
#110 = LOCAL_TIME ( 16, 2, 15.00000000000000000, #111 ) ;
#111 = COORDINATED_UNIVERSAL_TIME_OFFSET ( 6, 0, .BEHIND. ) ;
#112 = APPROVAL_PERSON_ORGANIZATION ( #116, #114, #113 ) ;
#113 = APPROVAL_ROLE ( '' ) ;
#114 = APPROVAL ( #115, 'UNSPECIFIED' ) ;
#115 = APPROVAL_STATUS ( 'not_yet_approved' ) ;
#116 = PERSON_AND_ORGANIZATION ( #125, #124 ) ;
#117 = PRODUCT_DEFINITION ( 'UNKNOWN', '', #93, #118 ) ;
#118 = DESIGN_CONTEXT ( 'detailed design', #120, 'design' ) ;
#119 = APPLICATION_PROTOCOL_DEFINITION ( 'international standard', 'config_control_design', 1994, #120 ) ;
#120 = APPLICATION_CONTEXT ( 'configuration controlled 3d designs of mechanical parts and assemblies' ) ;
#121 = CC_DESIGN_PERSON_AND_ORGANIZATION_ASSIGNMENT ( #123, #122, ( #126 ) ) ;
#122 = PERSON_AND_ORGANIZATION_ROLE ( 'design_owner' ) ;
#123 = PERSON_AND_ORGANIZATION ( #125, #124 ) ;
#124 = ORGANIZATION ( 'UNSPECIFIED', 'UNSPECIFIED', '' ) ;
#125 = PERSON ( 'UNSPECIFIED', 'UNSPECIFIED', 'UNSPECIFIED', ('UNSPECIFIED'), ('UNSPECIFIED'), ('UNSPECIFIED') ) ;
#126 = PRODUCT ( '94316A420', '94316A420', '', ( #127 ) ) ;
#127 = MECHANICAL_CONTEXT ( 'NONE', #129, 'mechanical' ) ;
#128 = APPLICATION_PROTOCOL_DEFINITION ( 'international standard', 'config_control_design', 1994, #129 ) ;
#129 = APPLICATION_CONTEXT ( 'configuration controlled 3d designs of mechanical parts and assemblies' ) ;
#130 = AXIS2_PLACEMENT_3D ( 'NONE', #159, #158, #157 ) ;
#131 = CIRCLE ( 'NONE', #130, 4.200000000000000200 ) ;
#132 = DIRECTION ( 'NONE',  ( 1.000000000000000000, 0.0000000000000000000, 0.0000000000000000000 ) ) ;
#133 = DIRECTION ( 'NONE',  ( 0.0000000000000000000, 0.0000000000000000000, 1.000000000000000000 ) ) ;
#134 = CARTESIAN_POINT ( 'NONE',  ( 0.0000000000000000000, 0.0000000000000000000, 0.0000000000000000000 ) ) ;
#135 = AXIS2_PLACEMENT_3D ( 'NONE', #134, #133, #132 ) ;
#136 = CIRCLE ( 'NONE', #135, 4.200000000000000200 ) ;
#137 = FACE_OUTER_BOUND ( 'NONE', #2, .T. ) ;
#138 = CARTESIAN_POINT ( 'NONE',  ( 0.0000000000000000000, 0.0000000000000000000, -1.399999999999999900 ) ) ;
#139 = CYLINDRICAL_SURFACE ( 'NONE', #192, 8.000000000000000000 ) ;
#140 = DIRECTION ( 'NONE',  ( 0.0000000000000000000, 0.0000000000000000000, 1.000000000000000000 ) ) ;
#141 = CIRCLE ( 'NONE', #193, 8.000000000000000000 ) ;
#142 = AXIS2_PLACEMENT_3D ( 'NONE', #194, #195, #145 ) ;
#143 = CYLINDRICAL_SURFACE ( 'NONE', #142, 4.200000000000000200 ) ;
#144 = CARTESIAN_POINT ( 'NONE',  ( 0.0000000000000000000, 0.0000000000000000000, -1.399999999999999900 ) ) ;
#145 = DIRECTION ( 'NONE',  ( 1.000000000000000000, 0.0000000000000000000, 0.0000000000000000000 ) ) ;
#146 = FACE_OUTER_BOUND ( 'NONE', #55, .T. ) ;
#147 = CIRCLE ( 'NONE', #244, 8.000000000000000000 ) ;
#148 = DIRECTION ( 'NONE',  ( 1.000000000000000000, 0.0000000000000000000, 0.0000000000000000000 ) ) ;
#149 = DIRECTION ( 'NONE',  ( 0.0000000000000000000, 0.0000000000000000000, 1.000000000000000000 ) ) ;
#150 = CARTESIAN_POINT ( 'NONE',  ( 0.0000000000000000000, 0.0000000000000000000, 0.0000000000000000000 ) ) ;
#151 = AXIS2_PLACEMENT_3D ( 'NONE', #150, #149, #148 ) ;
#152 = CIRCLE ( 'NONE', #151, 4.200000000000000200 ) ;
#153 = CARTESIAN_POINT ( 'NONE',  ( -4.200000000000000200, 5.143346686053985100E-016, 0.0000000000000000000 ) ) ;
#154 = CARTESIAN_POINT ( 'NONE',  ( 4.200000000000000200, 0.0000000000000000000, 0.0000000000000000000 ) ) ;
#155 = CARTESIAN_POINT ( 'NONE',  ( 4.200000000000000200, 0.0000000000000000000, -1.399999999999999900 ) ) ;
#156 = CARTESIAN_POINT ( 'NONE',  ( -4.200000000000000200, 5.143346686053985100E-016, -1.399999999999999900 ) ) ;
#157 = DIRECTION ( 'NONE',  ( 1.000000000000000000, 0.0000000000000000000, 0.0000000000000000000 ) ) ;
#158 = DIRECTION ( 'NONE',  ( 0.0000000000000000000, 0.0000000000000000000, 1.000000000000000000 ) ) ;
#159 = CARTESIAN_POINT ( 'NONE',  ( 0.0000000000000000000, 0.0000000000000000000, -1.399999999999999900 ) ) ;
#160 = PRODUCT_DEFINITION_SHAPE ( 'NONE', 'NONE',  #117 ) ;
#161 = PRODUCT_RELATED_PRODUCT_CATEGORY ( 'detail', '', ( #126 ) ) ;
#162 = CC_DESIGN_SECURITY_CLASSIFICATION ( #74, ( #93 ) ) ;
#163 = CC_DESIGN_APPROVAL ( #171, ( #74 ) ) ;
#164 = APPROVAL_DATE_TIME ( #165, #171 ) ;
#165 = DATE_AND_TIME ( #166, #167 ) ;
#166 = CALENDAR_DATE ( 2009, 20, 11 ) ;
#167 = LOCAL_TIME ( 16, 2, 15.00000000000000000, #168 ) ;
#168 = COORDINATED_UNIVERSAL_TIME_OFFSET ( 6, 0, .BEHIND. ) ;
#169 = APPROVAL_PERSON_ORGANIZATION ( #173, #171, #170 ) ;
#170 = APPROVAL_ROLE ( '' ) ;
#171 = APPROVAL ( #172, 'UNSPECIFIED' ) ;
#172 = APPROVAL_STATUS ( 'not_yet_approved' ) ;
#173 = PERSON_AND_ORGANIZATION ( #125, #124 ) ;
#174 = CC_DESIGN_DATE_AND_TIME_ASSIGNMENT ( #68, #175, ( #74 ) ) ;
#175 = DATE_TIME_ROLE ( 'classification_date' ) ;
#176 = CALENDAR_DATE ( 2009, 20, 11 ) ;
#177 = FACE_OUTER_BOUND ( 'NONE', #13, .T. ) ;
#178 = CARTESIAN_POINT ( 'NONE',  ( -8.000000000000000000, 9.796850830579018100E-016, -1.399999999999999900 ) ) ;
#179 = DIRECTION ( 'NONE',  ( 1.000000000000000000, 0.0000000000000000000, 0.0000000000000000000 ) ) ;
#180 = DIRECTION ( 'NONE',  ( 0.0000000000000000000, 0.0000000000000000000, 1.000000000000000000 ) ) ;
#181 = DIRECTION ( 'NONE',  ( 1.000000000000000000, 0.0000000000000000000, 0.0000000000000000000 ) ) ;
#182 = DIRECTION ( 'NONE',  ( 0.0000000000000000000, 0.0000000000000000000, 1.000000000000000000 ) ) ;
#183 = CARTESIAN_POINT ( 'NONE',  ( 0.0000000000000000000, 0.0000000000000000000, 0.0000000000000000000 ) ) ;
#184 = AXIS2_PLACEMENT_3D ( 'NONE', #183, #182, #181 ) ;
#185 = SHAPE_DEFINITION_REPRESENTATION ( #160, #245 ) ;
#186 = FACE_OUTER_BOUND ( 'NONE', #41, .T. ) ;
#187 = FACE_BOUND ( 'NONE', #21, .T. ) ;
#188 = DIRECTION ( 'NONE',  ( 1.000000000000000000, 0.0000000000000000000, 0.0000000000000000000 ) ) ;
#189 = DIRECTION ( 'NONE',  ( 0.0000000000000000000, 0.0000000000000000000, 1.000000000000000000 ) ) ;
#190 = CARTESIAN_POINT ( 'NONE',  ( 0.0000000000000000000, 0.0000000000000000000, 0.0000000000000000000 ) ) ;
#191 = DIRECTION ( 'NONE',  ( 1.000000000000000000, 0.0000000000000000000, 0.0000000000000000000 ) ) ;
#192 = AXIS2_PLACEMENT_3D ( 'NONE', #138, #140, #191 ) ;
#193 = AXIS2_PLACEMENT_3D ( 'NONE', #190, #189, #188 ) ;
#194 = CARTESIAN_POINT ( 'NONE',  ( 0.0000000000000000000, 0.0000000000000000000, -1.399999999999999900 ) ) ;
#195 = DIRECTION ( 'NONE',  ( 0.0000000000000000000, 0.0000000000000000000, 1.000000000000000000 ) ) ;
#196 =( LENGTH_UNIT ( ) NAMED_UNIT ( * ) SI_UNIT ( .MILLI., .METRE. ) );
#197 = DIRECTION ( 'NONE',  ( 0.0000000000000000000, 0.0000000000000000000, 1.000000000000000000 ) ) ;
#198 = VECTOR ( 'NONE', #197, 1000.000000000000000 ) ;
#199 = CARTESIAN_POINT ( 'NONE',  ( -4.200000000000000200, 5.143346686053985100E-016, -1.399999999999999900 ) ) ;
#200 = LINE ( 'NONE', #199, #198 ) ;
#201 = DIRECTION ( 'NONE',  ( 0.0000000000000000000, 0.0000000000000000000, 1.000000000000000000 ) ) ;
#202 = VECTOR ( 'NONE', #201, 1000.000000000000000 ) ;
#203 = CARTESIAN_POINT ( 'NONE',  ( 4.200000000000000200, 0.0000000000000000000, -1.399999999999999900 ) ) ;
#204 = LINE ( 'NONE', #203, #202 ) ;
#205 = DIRECTION ( 'NONE',  ( 1.000000000000000000, 0.0000000000000000000, 0.0000000000000000000 ) ) ;
#206 = DIRECTION ( 'NONE',  ( 0.0000000000000000000, 0.0000000000000000000, 1.000000000000000000 ) ) ;
#207 = CARTESIAN_POINT ( 'NONE',  ( 0.0000000000000000000, 0.0000000000000000000, -1.399999999999999900 ) ) ;
#208 = AXIS2_PLACEMENT_3D ( 'NONE', #207, #206, #205 ) ;
#209 = DIRECTION ( 'NONE',  ( 1.000000000000000000, 0.0000000000000000000, 0.0000000000000000000 ) ) ;
#210 = DIRECTION ( 'NONE',  ( 0.0000000000000000000, 0.0000000000000000000, 1.000000000000000000 ) ) ;
#211 = AXIS2_PLACEMENT_3D ( 'NONE', #213, #210, #209 ) ;
#212 = CYLINDRICAL_SURFACE ( 'NONE', #211, 4.200000000000000200 ) ;
#213 = CARTESIAN_POINT ( 'NONE',  ( 0.0000000000000000000, 0.0000000000000000000, -1.399999999999999900 ) ) ;
#214 = FACE_OUTER_BOUND ( 'NONE', #31, .T. ) ;
#215 = CARTESIAN_POINT ( 'NONE',  ( 8.000000000000000000, 0.0000000000000000000, 0.0000000000000000000 ) ) ;
#216 = DIRECTION ( 'NONE',  ( 1.000000000000000000, 0.0000000000000000000, 0.0000000000000000000 ) ) ;
#217 = DIRECTION ( 'NONE',  ( 0.0000000000000000000, 0.0000000000000000000, 1.000000000000000000 ) ) ;
#218 = CARTESIAN_POINT ( 'NONE',  ( 0.0000000000000000000, 0.0000000000000000000, 0.0000000000000000000 ) ) ;
#219 = AXIS2_PLACEMENT_3D ( 'NONE', #218, #217, #216 ) ;
#220 = PLANE ( 'NONE',  #219 ) ;
#221 = FACE_OUTER_BOUND ( 'NONE', #45, .T. ) ;
#222 = FACE_BOUND ( 'NONE', #40, .T. ) ;
#223 = DIRECTION ( 'NONE',  ( 1.000000000000000000, 0.0000000000000000000, 0.0000000000000000000 ) ) ;
#224 = DIRECTION ( 'NONE',  ( 0.0000000000000000000, 0.0000000000000000000, 1.000000000000000000 ) ) ;
#225 = AXIS2_PLACEMENT_3D ( 'NONE', #61, #224, #223 ) ;
#226 = CIRCLE ( 'NONE', #208, 8.000000000000000000 ) ;
#227 = DIRECTION ( 'NONE',  ( 0.0000000000000000000, 0.0000000000000000000, 1.000000000000000000 ) ) ;
#228 = VECTOR ( 'NONE', #227, 1000.000000000000000 ) ;
#229 = CARTESIAN_POINT ( 'NONE',  ( -8.000000000000000000, 9.796850830579018100E-016, -1.399999999999999900 ) ) ;
#230 = LINE ( 'NONE', #229, #228 ) ;
#231 = CARTESIAN_POINT ( 'NONE',  ( -8.000000000000000000, 9.796850830579018100E-016, 0.0000000000000000000 ) ) ;
#232 = DIRECTION ( 'NONE',  ( 1.000000000000000000, 0.0000000000000000000, 0.0000000000000000000 ) ) ;
#233 = DIRECTION ( 'NONE',  ( 0.0000000000000000000, 0.0000000000000000000, 1.000000000000000000 ) ) ;
#234 = CARTESIAN_POINT ( 'NONE',  ( 0.0000000000000000000, 0.0000000000000000000, 0.0000000000000000000 ) ) ;
#235 = AXIS2_PLACEMENT_3D ( 'NONE', #234, #233, #232 ) ;
#236 = CIRCLE ( 'NONE', #235, 8.000000000000000000 ) ;
#237 = DIRECTION ( 'NONE',  ( 0.0000000000000000000, 0.0000000000000000000, 1.000000000000000000 ) ) ;
#238 = VECTOR ( 'NONE', #237, 1000.000000000000000 ) ;
#239 = CARTESIAN_POINT ( 'NONE',  ( 8.000000000000000000, 0.0000000000000000000, -1.399999999999999900 ) ) ;
#240 = LINE ( 'NONE', #239, #238 ) ;
#241 = DIRECTION ( 'NONE',  ( 1.000000000000000000, 0.0000000000000000000, 0.0000000000000000000 ) ) ;
#242 = DIRECTION ( 'NONE',  ( 0.0000000000000000000, 0.0000000000000000000, 1.000000000000000000 ) ) ;
#243 = CARTESIAN_POINT ( 'NONE',  ( 0.0000000000000000000, 0.0000000000000000000, -1.399999999999999900 ) ) ;
#244 = AXIS2_PLACEMENT_3D ( 'NONE', #243, #242, #241 ) ;
#245 = ADVANCED_BREP_SHAPE_REPRESENTATION ( '94316A420', ( #28, #184 ), #246 ) ;
#246 =( GEOMETRIC_REPRESENTATION_CONTEXT ( 3 ) GLOBAL_UNCERTAINTY_ASSIGNED_CONTEXT ( ( #247 ) ) GLOBAL_UNIT_ASSIGNED_CONTEXT ( ( #196, #249, #248 ) ) REPRESENTATION_CONTEXT ( 'NONE', 'WORKASPACE' ) );
#247 = UNCERTAINTY_MEASURE_WITH_UNIT (LENGTH_MEASURE( 1.000000000000000100E-005 ), #196, 'distance_accuracy_value', 'NONE');
#248 =( NAMED_UNIT ( * ) SI_UNIT ( $, .STERADIAN. ) SOLID_ANGLE_UNIT ( ) );
#249 =( NAMED_UNIT ( * ) PLANE_ANGLE_UNIT ( ) SI_UNIT ( $, .RADIAN. ) );
ENDSEC;
END-ISO-10303-21;
