                                                                        S      1
,,9HVGF63.ipt,27HNo Iges File Name specified,23HAutoDesk Inventor R12.0,G      1
37HAutoDesk Inventor Iges Exporter R12.0,32,38,6,99,15,9HVGF63.ipt,     G      2
1.0D0,2,2HMM,1,.08D0,15H20090312.162356,.01D0,10000.0D0,,,11,0,,;       G      3
     406       1       0       0       1       0       0       000000000D      1
     406       0       0       1       3                               0D      2
     116       2       0       0       0       0       0       000010000D      3
     116       0       0       1       0                               0D      4
     123       3       0       0       0       0       0       000010200D      5
     123       0       0       1       0                               0D      6
     192       4       0       0       0       0       0       000010000D      7
     192       0       0       1       1                               0D      8
     123       5       0       0       0       0       0       000010200D      9
     123       0       0       1       0                               0D     10
     502       6       0       0       0       0       0       000010000D     11
     502       0       0       4       1                               0D     12
     110      10       0       0       0       0       0       000010000D     13
     110       0       0       1       0                               0D     14
     504      11       0       0       0       0       0       000010001D     15
     504       0       0       3       1                               0D     16
     100      14       0       0       0       0      19       000010000D     17
     100       0       0       2       0                               0D     18
     124      16       0       0       0       0       0       000000000D     19
     124       0       0       2       0                               0D     20
     110      18       0       0       0       0       0       000010000D     21
     110       0       0       2       0                               0D     22
     100      20       0       0       0       0      25       000010000D     23
     100       0       0       2       0                               0D     24
     124      22       0       0       0       0       0       000000000D     25
     124       0       0       2       0                               0D     26
     508      24       0       0       0       0       0       000010000D     27
     508       0       0       1       1                               0D     28
     510      25       0       0       0       0       0       000010001D     29
     510       0       0       1       1                               0D     30
     120      26       0       0       0       0       0       000010000D     31
     120       0       0       1       0                               0D     32
     110      27       0       0       0       0       0       000010000D     33
     110       0       0       1       0                               0D     34
     110      28       0       0       0       0       0       001010000D     35
     110       0       0       1       0                               0D     36
     110      29       0       0       0       0       0       000010000D     37
     110       0       0       1       0                               0D     38
     100      30       0       0       0       0      41       000010000D     39
     100       0       0       1       0                               0D     40
     124      31       0       0       0       0       0       000000000D     41
     124       0       0       2       0                               0D     42
     110      33       0       0       0       0       0       000010000D     43
     110       0       0       2       0                               0D     44
     100      35       0       0       0       0      47       000010000D     45
     100       0       0       1       0                               0D     46
     124      36       0       0       0       0       0       000000000D     47
     124       0       0       2       0                               0D     48
     508      38       0       0       0       0       0       000010000D     49
     508       0       0       1       1                               0D     50
     510      39       0       0       0       0       0       000010001D     51
     510       0       0       1       1                               0D     52
     116      40       0       0       0       0       0       000010000D     53
     116       0       0       1       0                               0D     54
     123      41       0       0       0       0       0       000010200D     55
     123       0       0       1       0                               0D     56
     190      42       0       0       0       0       0       000010000D     57
     190       0       0       1       1                               0D     58
     123      43       0       0       0       0       0       000010200D     59
     123       0       0       1       0                               0D     60
     100      44       0       0       0       0      19       000010000D     61
     100       0       0       1       0                               0D     62
     508      45       0       0       0       0       0       000010000D     63
     508       0       0       1       1                               0D     64
     100      46       0       0       0       0      41       000010000D     65
     100       0       0       2       0                               0D     66
     508      48       0       0       0       0       0       000010000D     67
     508       0       0       1       1                               0D     68
     510      49       0       0       0       0       0       000010001D     69
     510       0       0       1       1                               0D     70
     120      50       0       0       0       0       0       000010000D     71
     120       0       0       1       0                               0D     72
     110      51       0       0       0       0       0       000010000D     73
     110       0       0       1       0                               0D     74
     110      52       0       0       0       0       0       001010000D     75
     110       0       0       1       0                               0D     76
     100      53       0       0       0       0      47       000010000D     77
     100       0       0       2       0                               0D     78
     508      55       0       0       0       0       0       000010000D     79
     508       0       0       1       1                               0D     80
     510      56       0       0       0       0       0       000010001D     81
     510       0       0       1       1                               0D     82
     116      57       0       0       0       0       0       000010000D     83
     116       0       0       1       0                               0D     84
     123      58       0       0       0       0       0       000010200D     85
     123       0       0       1       0                               0D     86
     190      59       0       0       0       0       0       000010000D     87
     190       0       0       1       1                               0D     88
     123      60       0       0       0       0       0       000010200D     89
     123       0       0       1       0                               0D     90
     100      61       0       0       0       0      25       000010000D     91
     100       0       0       1       0                               0D     92
     508      62       0       0       0       0       0       000010000D     93
     508       0       0       1       1                               0D     94
     508      63       0       0       0       0       0       000010000D     95
     508       0       0       1       1                               0D     96
     510      64       0       0       0       0       0       000010001D     97
     510       0       0       1       1                               0D     98
     116      65       0       0       0       0       0       000010000D     99
     116       0       0       1       0                               0D    100
     123      66       0       0       0       0       0       000010200D    101
     123       0       0       1       0                               0D    102
     192      67       0       0       0       0       0       000010000D    103
     192       0       0       1       1                               0D    104
     123      68       0       0       0       0       0       000010200D    105
     123       0       0       1       0                               0D    106
     508      69       0       0       0       0       0       000010000D    107
     508       0       0       1       1                               0D    108
     510      70       0       0       0       0       0       000010001D    109
     510       0       0       1       1                               0D    110
     514      71       0       0       0       0       0       000010000D    111
     514       0       0       1       1                               0D    112
     186      72       0       0       1       0       0       000000000D    113
     186       0    -115       1       0                               0D    114
     314      73       0       0       0       0       0       000000200D    115
     314       0       0       2       0                               0D    116
406,2,0,5HVGF63;                                                       1P      1
116,0.0D0,0.0D0,0.0D0,0;                                               3P      2
123,1.0D0,0.0D0,0.0D0;                                                 5P      3
192,3,5,41.0D0,9;                                                      7P      4
123,0.0D0,1.0D0,0.0D0;                                                 9P      5
502,8,1.5D0,41.0D0,0.0D0,-1.5D0,41.0D0,0.0D0,1.5D0,-41.0D0,           11P      6
-5.02088605067175D-15,-1.5D0,-41.0D0,-5.02088605067175D-15,           11P      7
1.5D0,31.5D0,0.0D0,-1.5D0,31.5D0,0.0D0,1.5D0,-31.5D0,                 11P      8
-3.85751001454049D-15,-1.5D0,-31.5D0,-3.85751001454049D-15;           11P      9
110,1.5D0,41.0D0,0.0D0,-1.5D0,41.0D0,0.0D0;                           13P     10
504,12,13,11,1,11,2,17,11,3,11,1,21,11,3,11,4,23,11,4,11,2,37,        15P     11
11,5,11,6,39,11,5,11,7,43,11,7,11,8,45,11,6,11,8,61,11,1,11,3,        15P     12
65,11,7,11,5,77,11,8,11,6,91,11,2,11,4;                               15P     13
100,0.0D0,0.0D0,0.0D0,-41.0D0,5.02105187650415D-15,41.0D0,            17P     14
-1.00421037530083D-14;                                                17P     15
124,0.0D0,0.0D0,1.0D0,1.5D0,1.0D0,0.0D0,0.0D0,0.0D0,0.0D0,1.0D0,      19P     16
0.0D0,0.0D0;                                                          19P     17
110,1.5D0,-41.0D0,-5.02088605067175D-15,-1.5D0,-41.0D0,               21P     18
-5.02088605067175D-15;                                                21P     19
100,0.0D0,0.0D0,0.0D0,-41.0D0,5.02105187650415D-15,41.0D0,            23P     20
-1.00421037530083D-14;                                                23P     21
124,0.0D0,0.0D0,1.0D0,-1.5D0,1.0D0,0.0D0,0.0D0,0.0D0,0.0D0,           25P     22
1.0D0,0.0D0,0.0D0;                                                    25P     23
508,4,0,15,1,0,0,0,15,2,0,0,0,15,3,1,0,0,15,4,1,0;                    27P     24
510,7,1,1,27;                                                         29P     25
120,35,33,0.0D0,6.28318530717959D0;                                   31P     26
110,-1.65D0,31.5D0,0.0D0,1.65D0,31.5D0,0.0D0;                         33P     27
110,-1.65D0,0.0D0,0.0D0,-.65D0,0.0D0,0.0D0;                           35P     28
110,1.5D0,31.5D0,0.0D0,-1.5D0,31.5D0,0.0D0;                           37P     29
100,0.0D0,0.0D0,0.0D0,31.5D0,0.0D0,-31.5D0,3.85763741731416D-15;      39P     30
124,0.0D0,0.0D0,1.0D0,1.5D0,1.0D0,0.0D0,0.0D0,0.0D0,0.0D0,1.0D0,      41P     31
0.0D0,0.0D0;                                                          41P     32
110,1.5D0,-31.5D0,-3.85751001454049D-15,-1.5D0,-31.5D0,               43P     33
-3.85751001454049D-15;                                                43P     34
100,0.0D0,0.0D0,0.0D0,31.5D0,0.0D0,-31.5D0,3.85763741731416D-15;      45P     35
124,0.0D0,0.0D0,1.0D0,-1.5D0,1.0D0,0.0D0,0.0D0,0.0D0,0.0D0,           47P     36
1.0D0,0.0D0,0.0D0;                                                    47P     37
508,4,0,15,5,0,0,0,15,6,1,0,0,15,7,1,0,0,15,8,0,0;                    49P     38
510,31,1,1,49;                                                        51P     39
116,1.5D0,36.25D0,0.0D0,0;                                            53P     40
123,1.0D0,0.0D0,0.0D0;                                                55P     41
190,53,55,59;                                                         57P     42
123,0.0D0,0.0D0,-1.0D0;                                               59P     43
100,0.0D0,0.0D0,0.0D0,41.0D0,0.0D0,-41.0D0,5.02105187650415D-15;      61P     44
508,2,0,15,9,1,0,0,15,2,1,0;                                          63P     45
100,0.0D0,0.0D0,0.0D0,-31.5D0,3.85763741731416D-15,31.5D0,            65P     46
-7.71527483462832D-15;                                                65P     47
508,2,0,15,6,0,0,0,15,10,0,0;                                         67P     48
510,57,2,1,63,67;                                                     69P     49
120,75,73,0.0D0,6.28318530717959D0;                                   71P     50
110,-1.65D0,31.5D0,0.0D0,1.65D0,31.5D0,0.0D0;                         73P     51
110,-1.65D0,0.0D0,0.0D0,-.65D0,0.0D0,0.0D0;                           75P     52
100,0.0D0,0.0D0,0.0D0,-31.5D0,3.85763741731416D-15,31.5D0,            77P     53
-7.71527483462832D-15;                                                77P     54
508,4,0,15,5,1,0,0,15,11,0,0,0,15,7,0,0,0,15,10,1,0;                  79P     55
510,71,1,1,79;                                                        81P     56
116,-1.5D0,36.25D0,0.0D0,0;                                           83P     57
123,-1.0D0,0.0D0,0.0D0;                                               85P     58
190,83,85,89;                                                         87P     59
123,0.0D0,0.0D0,1.0D0;                                                89P     60
100,0.0D0,0.0D0,0.0D0,41.0D0,0.0D0,-41.0D0,5.02105187650415D-15;      91P     61
508,2,0,15,12,0,0,0,15,4,0,0;                                         93P     62
508,2,0,15,8,1,0,0,15,11,1,0;                                         95P     63
510,87,2,1,93,95;                                                     97P     64
116,0.0D0,0.0D0,0.0D0,0;                                              99P     65
123,1.0D0,0.0D0,0.0D0;                                               101P     66
192,99,101,41.0D0,105;                                               103P     67
123,0.0D0,1.0D0,0.0D0;                                               105P     68
508,4,0,15,1,1,0,0,15,12,1,0,0,15,3,0,0,0,15,9,0,0;                  107P     69
510,103,1,1,107;                                                     109P     70
514,6,29,1,51,1,69,1,81,1,97,1,109,1;                                111P     71
186,111,1,0;                                                         113P     72
314,30.9803992509842D0,30.9803992509842D0,30.9803992509842D0,        115P     73
15HGummi (schwarz);                                                  115P     74
S      1G      3D    116P     74                                        T      1
