                                                                        S      1
,,9HVGF35.ipt,27HNo Iges File Name specified,23HAutoDesk Inventor R12.0,G      1
37HAutoDesk Inventor Iges Exporter R12.0,32,38,6,99,15,9HVGF35.ipt,     G      2
1.0D0,2,2HMM,1,.08D0,15H20090312.162356,.01D0,10000.0D0,,,11,0,,;       G      3
     406       1       0       0       1       0       0       000000000D      1
     406       0       0       1       3                               0D      2
     116       2       0       0       0       0       0       000010000D      3
     116       0       0       1       0                               0D      4
     123       3       0       0       0       0       0       000010200D      5
     123       0       0       1       0                               0D      6
     192       4       0       0       0       0       0       000010000D      7
     192       0       0       1       1                               0D      8
     123       5       0       0       0       0       0       000010200D      9
     123       0       0       1       0                               0D     10
     502       6       0       0       0       0       0       000010000D     11
     502       0       0       4       1                               0D     12
     110      10       0       0       0       0       0       000010000D     13
     110       0       0       1       0                               0D     14
     504      11       0       0       0       0       0       000010001D     15
     504       0       0       3       1                               0D     16
     100      14       0       0       0       0      19       000010000D     17
     100       0       0       2       0                               0D     18
     124      16       0       0       0       0       0       000000000D     19
     124       0       0       2       0                               0D     20
     110      18       0       0       0       0       0       000010000D     21
     110       0       0       2       0                               0D     22
     100      20       0       0       0       0      25       000010000D     23
     100       0       0       2       0                               0D     24
     124      22       0       0       0       0       0       000000000D     25
     124       0       0       2       0                               0D     26
     508      24       0       0       0       0       0       000010000D     27
     508       0       0       1       1                               0D     28
     510      25       0       0       0       0       0       000010001D     29
     510       0       0       1       1                               0D     30
     120      26       0       0       0       0       0       000010000D     31
     120       0       0       1       0                               0D     32
     110      27       0       0       0       0       0       000010000D     33
     110       0       0       1       0                               0D     34
     110      28       0       0       0       0       0       001010000D     35
     110       0       0       1       0                               0D     36
     110      29       0       0       0       0       0       000010000D     37
     110       0       0       1       0                               0D     38
     100      30       0       0       0       0      19       000010000D     39
     100       0       0       1       0                               0D     40
     110      31       0       0       0       0       0       000010000D     41
     110       0       0       2       0                               0D     42
     100      33       0       0       0       0      25       000010000D     43
     100       0       0       1       0                               0D     44
     508      34       0       0       0       0       0       000010000D     45
     508       0       0       1       1                               0D     46
     510      35       0       0       0       0       0       000010001D     47
     510       0       0       1       1                               0D     48
     116      36       0       0       0       0       0       000010000D     49
     116       0       0       1       0                               0D     50
     123      37       0       0       0       0       0       000010200D     51
     123       0       0       1       0                               0D     52
     190      38       0       0       0       0       0       000010000D     53
     190       0       0       1       1                               0D     54
     123      39       0       0       0       0       0       000010200D     55
     123       0       0       1       0                               0D     56
     100      40       0       0       0       0      19       000010000D     57
     100       0       0       1       0                               0D     58
     508      41       0       0       0       0       0       000010000D     59
     508       0       0       1       1                               0D     60
     100      42       0       0       0       0      19       000010000D     61
     100       0       0       2       0                               0D     62
     508      44       0       0       0       0       0       000010000D     63
     508       0       0       1       1                               0D     64
     510      45       0       0       0       0       0       000010001D     65
     510       0       0       1       1                               0D     66
     120      46       0       0       0       0       0       000010000D     67
     120       0       0       1       0                               0D     68
     110      47       0       0       0       0       0       000010000D     69
     110       0       0       1       0                               0D     70
     110      48       0       0       0       0       0       001010000D     71
     110       0       0       1       0                               0D     72
     100      49       0       0       0       0      25       000010000D     73
     100       0       0       2       0                               0D     74
     508      51       0       0       0       0       0       000010000D     75
     508       0       0       1       1                               0D     76
     510      52       0       0       0       0       0       000010001D     77
     510       0       0       1       1                               0D     78
     116      53       0       0       0       0       0       000010000D     79
     116       0       0       1       0                               0D     80
     123      54       0       0       0       0       0       000010200D     81
     123       0       0       1       0                               0D     82
     190      55       0       0       0       0       0       000010000D     83
     190       0       0       1       1                               0D     84
     123      56       0       0       0       0       0       000010200D     85
     123       0       0       1       0                               0D     86
     100      57       0       0       0       0      25       000010000D     87
     100       0       0       1       0                               0D     88
     508      58       0       0       0       0       0       000010000D     89
     508       0       0       1       1                               0D     90
     508      59       0       0       0       0       0       000010000D     91
     508       0       0       1       1                               0D     92
     510      60       0       0       0       0       0       000010001D     93
     510       0       0       1       1                               0D     94
     116      61       0       0       0       0       0       000010000D     95
     116       0       0       1       0                               0D     96
     123      62       0       0       0       0       0       000010200D     97
     123       0       0       1       0                               0D     98
     192      63       0       0       0       0       0       000010000D     99
     192       0       0       1       1                               0D    100
     123      64       0       0       0       0       0       000010200D    101
     123       0       0       1       0                               0D    102
     508      65       0       0       0       0       0       000010000D    103
     508       0       0       1       1                               0D    104
     510      66       0       0       0       0       0       000010001D    105
     510       0       0       1       1                               0D    106
     514      67       0       0       0       0       0       000010000D    107
     514       0       0       1       1                               0D    108
     186      68       0       0       1       0       0       000000000D    109
     186       0    -111       1       0                               0D    110
     314      69       0       0       0       0       0       000000200D    111
     314       0       0       2       0                               0D    112
406,2,0,5HVGF35;                                                       1P      1
116,0.0D0,0.0D0,0.0D0,0;                                               3P      2
123,1.0D0,0.0D0,0.0D0;                                                 5P      3
192,3,5,24.0D0,9;                                                      7P      4
123,0.0D0,1.0D0,0.0D0;                                                 9P      5
502,8,1.5D0,24.0D0,0.0D0,-1.5D0,24.0D0,0.0D0,1.5D0,-24.0D0,           11P      6
-2.93905524917371D-15,-1.5D0,-24.0D0,-2.93905524917371D-15,           11P      7
1.5D0,18.5D0,0.0D0,-1.5D0,18.5D0,0.0D0,1.5D0,-18.5D0,                 11P      8
-2.2655217545714D-15,-1.5D0,-18.5D0,-2.2655217545714D-15;             11P      9
110,1.5D0,24.0D0,0.0D0,-1.5D0,24.0D0,0.0D0;                           13P     10
504,12,13,11,1,11,2,17,11,3,11,1,21,11,3,11,4,23,11,4,11,2,37,        15P     11
11,5,11,6,39,11,5,11,7,41,11,7,11,8,43,11,6,11,8,57,11,1,11,3,        15P     12
61,11,7,11,5,73,11,8,11,6,87,11,2,11,4;                               15P     13
100,0.0D0,0.0D0,0.0D0,-24.0D0,2.93915231795365D-15,24.0D0,            17P     14
-5.8783046359073D-15;                                                 17P     15
124,0.0D0,0.0D0,1.0D0,1.5D0,1.0D0,0.0D0,0.0D0,0.0D0,0.0D0,1.0D0,      19P     16
0.0D0,0.0D0;                                                          19P     17
110,1.5D0,-24.0D0,-2.93905524917371D-15,-1.5D0,-24.0D0,               21P     18
-2.93905524917371D-15;                                                21P     19
100,0.0D0,0.0D0,0.0D0,-24.0D0,2.93915231795365D-15,24.0D0,            23P     20
-5.8783046359073D-15;                                                 23P     21
124,0.0D0,0.0D0,1.0D0,-1.5D0,1.0D0,0.0D0,0.0D0,0.0D0,0.0D0,           25P     22
1.0D0,0.0D0,0.0D0;                                                    25P     23
508,4,0,15,1,0,0,0,15,2,0,0,0,15,3,1,0,0,15,4,1,0;                    27P     24
510,7,1,1,27;                                                         29P     25
120,35,33,0.0D0,6.28318530717959D0;                                   31P     26
110,-1.65D0,18.5D0,0.0D0,1.65D0,18.5D0,0.0D0;                         33P     27
110,-1.65D0,0.0D0,0.0D0,-.650000000000001D0,0.0D0,0.0D0;              35P     28
110,1.5D0,18.5D0,0.0D0,-1.5D0,18.5D0,0.0D0;                           37P     29
100,0.0D0,0.0D0,0.0D0,18.5D0,0.0D0,-18.5D0,2.2655965784226D-15;       39P     30
110,1.5D0,-18.5D0,-2.2655217545714D-15,-1.5D0,-18.5D0,                41P     31
-2.2655217545714D-15;                                                 41P     32
100,0.0D0,0.0D0,0.0D0,18.5D0,0.0D0,-18.5D0,2.2655965784226D-15;       43P     33
508,4,0,15,5,0,0,0,15,6,1,0,0,15,7,1,0,0,15,8,0,0;                    45P     34
510,31,1,1,45;                                                        47P     35
116,1.5D0,21.25D0,0.0D0,0;                                            49P     36
123,1.0D0,0.0D0,0.0D0;                                                51P     37
190,49,51,55;                                                         53P     38
123,0.0D0,0.0D0,-1.0D0;                                               55P     39
100,0.0D0,0.0D0,0.0D0,24.0D0,0.0D0,-24.0D0,2.93915231795365D-15;      57P     40
508,2,0,15,9,1,0,0,15,2,1,0;                                          59P     41
100,0.0D0,0.0D0,0.0D0,-18.5D0,2.2655965784226D-15,18.5D0,             61P     42
-4.53119315684521D-15;                                                61P     43
508,2,0,15,6,0,0,0,15,10,0,0;                                         63P     44
510,53,2,1,59,63;                                                     65P     45
120,71,69,0.0D0,6.28318530717959D0;                                   67P     46
110,-1.65D0,18.5D0,0.0D0,1.65D0,18.5D0,0.0D0;                         69P     47
110,-1.65D0,0.0D0,0.0D0,-.650000000000001D0,0.0D0,0.0D0;              71P     48
100,0.0D0,0.0D0,0.0D0,-18.5D0,2.2655965784226D-15,18.5D0,             73P     49
-4.53119315684521D-15;                                                73P     50
508,4,0,15,5,1,0,0,15,11,0,0,0,15,7,0,0,0,15,10,1,0;                  75P     51
510,67,1,1,75;                                                        77P     52
116,-1.5D0,21.25D0,0.0D0,0;                                           79P     53
123,-1.0D0,0.0D0,0.0D0;                                               81P     54
190,79,81,85;                                                         83P     55
123,0.0D0,0.0D0,1.0D0;                                                85P     56
100,0.0D0,0.0D0,0.0D0,24.0D0,0.0D0,-24.0D0,2.93915231795365D-15;      87P     57
508,2,0,15,12,0,0,0,15,4,0,0;                                         89P     58
508,2,0,15,8,1,0,0,15,11,1,0;                                         91P     59
510,83,2,1,89,91;                                                     93P     60
116,0.0D0,0.0D0,0.0D0,0;                                              95P     61
123,1.0D0,0.0D0,0.0D0;                                                97P     62
192,95,97,24.0D0,101;                                                 99P     63
123,0.0D0,1.0D0,0.0D0;                                               101P     64
508,4,0,15,1,1,0,0,15,12,1,0,0,15,3,0,0,0,15,9,0,0;                  103P     65
510,99,1,1,103;                                                      105P     66
514,6,29,1,47,1,65,1,77,1,93,1,105,1;                                107P     67
186,107,1,0;                                                         109P     68
314,30.9803992509842D0,30.9803992509842D0,30.9803992509842D0,        111P     69
15HGummi (schwarz);                                                  111P     70
S      1G      3D    112P     70                                        T      1
