                                                                        S      1
,,13HVGF250-BA.ipt,27HNo Iges File Name specified,23HAutoDesk Inventor RG      1
12.0,37HAutoDesk Inventor Iges Exporter R12.0,32,38,6,99,15,13HVGF250-BAG      2
.ipt,1.0D0,2,2HMM,1,.08D0,15H20090312.162355,.01D0,10000.0D0,,,11,0,,;  G      3
     406       1       0       0       1       0       0       000000000D      1
     406       0       0       1       3                               0D      2
     116       2       0       0       0       0       0       000010000D      3
     116       0       0       1       0                               0D      4
     123       3       0       0       0       0       0       000010200D      5
     123       0       0       1       0                               0D      6
     192       4       0       0       0       0       0       000010000D      7
     192       0       0       1       1                               0D      8
     123       5       0       0       0       0       0       000010200D      9
     123       0       0       1       0                               0D     10
     502       6       0       0       0       0       0       000010000D     11
     502       0       0       7       1                               0D     12
     110      13       0       0       0       0       0       000010000D     13
     110       0       0       2       0                               0D     14
     504      15       0       0       0       0       0       000010001D     15
     504       0       0       3       1                               0D     16
     100      18       0       0       0       0      19       000010000D     17
     100       0       0       2       0                               0D     18
     124      20       0       0       0       0       0       000000000D     19
     124       0       0       2       0                               0D     20
     110      22       0       0       0       0       0       000010000D     21
     110       0       0       2       0                               0D     22
     100      24       0       0       0       0      25       000010000D     23
     100       0       0       2       0                               0D     24
     124      26       0       0       0       0       0       000000000D     25
     124       0       0       2       0                               0D     26
     508      28       0       0       0       0       0       000010000D     27
     508       0       0       1       1                               0D     28
     510      29       0       0       0       0       0       000010001D     29
     510       0       0       1       1                               0D     30
     120      30       0       0       0       0       0       000010000D     31
     120       0       0       1       0                               0D     32
     110      31       0       0       0       0       0       000010000D     33
     110       0       0       2       0                               0D     34
     110      33       0       0       0       0       0       001010000D     35
     110       0       0       2       0                               0D     36
     110      35       0       0       0       0       0       000010000D     37
     110       0       0       2       0                               0D     38
     100      37       0       0       0       0      19       000010000D     39
     100       0       0       2       0                               0D     40
     110      39       0       0       0       0       0       000010000D     41
     110       0       0       2       0                               0D     42
     100      41       0       0       0       0      25       000010000D     43
     100       0       0       2       0                               0D     44
     508      43       0       0       0       0       0       000010000D     45
     508       0       0       1       1                               0D     46
     510      44       0       0       0       0       0       000010001D     47
     510       0       0       1       1                               0D     48
     116      45       0       0       0       0       0       000010000D     49
     116       0       0       1       0                               0D     50
     123      46       0       0       0       0       0       000010200D     51
     123       0       0       1       0                               0D     52
     190      47       0       0       0       0       0       000010000D     53
     190       0       0       1       1                               0D     54
     123      48       0       0       0       0       0       000010200D     55
     123       0       0       1       0                               0D     56
     100      49       0       0       0       0      19       000010000D     57
     100       0       0       2       0                               0D     58
     508      51       0       0       0       0       0       000010000D     59
     508       0       0       1       1                               0D     60
     100      52       0       0       0       0      19       000010000D     61
     100       0       0       2       0                               0D     62
     508      54       0       0       0       0       0       000010000D     63
     508       0       0       1       1                               0D     64
     510      55       0       0       0       0       0       000010001D     65
     510       0       0       1       1                               0D     66
     120      56       0       0       0       0       0       000010000D     67
     120       0       0       1       0                               0D     68
     110      57       0       0       0       0       0       000010000D     69
     110       0       0       2       0                               0D     70
     110      59       0       0       0       0       0       001010000D     71
     110       0       0       2       0                               0D     72
     100      61       0       0       0       0      25       000010000D     73
     100       0       0       2       0                               0D     74
     508      63       0       0       0       0       0       000010000D     75
     508       0       0       1       1                               0D     76
     510      64       0       0       0       0       0       000010001D     77
     510       0       0       1       1                               0D     78
     116      65       0       0       0       0       0       000010000D     79
     116       0       0       1       0                               0D     80
     123      66       0       0       0       0       0       000010200D     81
     123       0       0       1       0                               0D     82
     190      67       0       0       0       0       0       000010000D     83
     190       0       0       1       1                               0D     84
     123      68       0       0       0       0       0       000010200D     85
     123       0       0       1       0                               0D     86
     100      69       0       0       0       0      25       000010000D     87
     100       0       0       2       0                               0D     88
     508      71       0       0       0       0       0       000010000D     89
     508       0       0       1       1                               0D     90
     508      72       0       0       0       0       0       000010000D     91
     508       0       0       1       1                               0D     92
     510      73       0       0       0       0       0       000010001D     93
     510       0       0       1       1                               0D     94
     116      74       0       0       0       0       0       000010000D     95
     116       0       0       1       0                               0D     96
     123      75       0       0       0       0       0       000010200D     97
     123       0       0       1       0                               0D     98
     192      76       0       0       0       0       0       000010000D     99
     192       0       0       1       1                               0D    100
     123      77       0       0       0       0       0       000010200D    101
     123       0       0       1       0                               0D    102
     508      78       0       0       0       0       0       000010000D    103
     508       0       0       1       1                               0D    104
     510      79       0       0       0       0       0       000010001D    105
     510       0       0       1       1                               0D    106
     514      80       0       0       0       0       0       000010000D    107
     514       0       0       1       1                               0D    108
     186      81       0       0       1       0       0       000000000D    109
     186       0    -111       1       0                               0D    110
     314      82       0       0       0       0       0       000000200D    111
     314       0       0       2       0                               0D    112
406,2,0,9HVGF250-BA;                                                   1P      1
116,0.0D0,0.0D0,0.0D0,0;                                               3P      2
123,1.0D0,0.0D0,0.0D0;                                                 5P      3
192,3,5,136.35D0,9;                                                    7P      4
123,0.0D0,1.0D0,0.0D0;                                                 9P      5
502,8,1.49999999999999D0,136.35D0,0.0D0,-1.49999999999999D0,          11P      6
136.35D0,0.0D0,1.49999999999999D0,-136.35D0,                          11P      7
-1.66975076343681D-14,-1.49999999999999D0,-136.35D0,                  11P      8
-1.66975076343681D-14,1.49999999999999D0,127.0D0,0.0D0,               11P      9
-1.49999999999999D0,127.0D0,0.0D0,1.49999999999999D0,-127.0D0,        11P     10
-1.55525006935442D-14,-1.49999999999999D0,-127.0D0,                   11P     11
-1.55525006935442D-14;                                                11P     12
110,1.49999999999999D0,136.35D0,0.0D0,-1.49999999999999D0,            13P     13
136.35D0,0.0D0;                                                       13P     14
504,12,13,11,1,11,2,17,11,3,11,1,21,11,3,11,4,23,11,4,11,2,37,        15P     15
11,5,11,6,39,11,5,11,7,41,11,7,11,8,43,11,6,11,8,57,11,1,11,3,        15P     16
61,11,7,11,5,73,11,8,11,6,87,11,2,11,4;                               15P     17
100,0.0D0,0.0D0,0.0D0,-136.35D0,1.66980591063742D-14,136.35D0,        17P     18
-3.33961182127483D-14;                                                17P     19
124,0.0D0,0.0D0,1.0D0,1.49999999999999D0,1.0D0,0.0D0,0.0D0,           19P     20
0.0D0,0.0D0,1.0D0,0.0D0,0.0D0;                                        19P     21
110,1.49999999999999D0,-136.35D0,-1.66975076343681D-14,               21P     22
-1.49999999999999D0,-136.35D0,-1.66975076343681D-14;                  21P     23
100,0.0D0,0.0D0,0.0D0,-136.35D0,1.66980591063742D-14,136.35D0,        23P     24
-3.33961182127483D-14;                                                23P     25
124,0.0D0,0.0D0,1.0D0,-1.49999999999999D0,1.0D0,0.0D0,0.0D0,          25P     26
0.0D0,0.0D0,1.0D0,0.0D0,0.0D0;                                        25P     27
508,4,0,15,1,0,0,0,15,2,0,0,0,15,3,1,0,0,15,4,1,0;                    27P     28
510,7,1,1,27;                                                         29P     29
120,35,33,0.0D0,6.28318530717959D0;                                   31P     30
110,-1.64999999999999D0,127.0D0,0.0D0,1.64999999999999D0,             33P     31
127.0D0,0.0D0;                                                        33P     32
110,-1.64999999999999D0,0.0D0,0.0D0,-.649999999999994D0,0.0D0,        35P     33
0.0D0;                                                                35P     34
110,1.49999999999999D0,127.0D0,0.0D0,-1.49999999999999D0,             37P     35
127.0D0,0.0D0;                                                        37P     36
100,0.0D0,0.0D0,0.0D0,127.0D0,0.0D0,-127.0D0,                         39P     37
1.55530143491714D-14;                                                 39P     38
110,1.49999999999999D0,-127.0D0,-1.55525006935442D-14,                41P     39
-1.49999999999999D0,-127.0D0,-1.55525006935442D-14;                   41P     40
100,0.0D0,0.0D0,0.0D0,127.0D0,0.0D0,-127.0D0,                         43P     41
1.55530143491714D-14;                                                 43P     42
508,4,0,15,5,0,0,0,15,6,1,0,0,15,7,1,0,0,15,8,0,0;                    45P     43
510,31,1,1,45;                                                        47P     44
116,1.49999999999999D0,131.675D0,0.0D0,0;                             49P     45
123,1.0D0,0.0D0,0.0D0;                                                51P     46
190,49,51,55;                                                         53P     47
123,0.0D0,0.0D0,-1.0D0;                                               55P     48
100,0.0D0,0.0D0,0.0D0,136.35D0,0.0D0,-136.35D0,                       57P     49
1.66980591063742D-14;                                                 57P     50
508,2,0,15,9,1,0,0,15,2,1,0;                                          59P     51
100,0.0D0,0.0D0,0.0D0,-127.0D0,1.55530143491714D-14,127.0D0,          61P     52
-3.11060286983428D-14;                                                61P     53
508,2,0,15,6,0,0,0,15,10,0,0;                                         63P     54
510,53,2,1,59,63;                                                     65P     55
120,71,69,0.0D0,6.28318530717959D0;                                   67P     56
110,-1.64999999999999D0,127.0D0,0.0D0,1.64999999999999D0,             69P     57
127.0D0,0.0D0;                                                        69P     58
110,-1.64999999999999D0,0.0D0,0.0D0,-.649999999999994D0,0.0D0,        71P     59
0.0D0;                                                                71P     60
100,0.0D0,0.0D0,0.0D0,-127.0D0,1.55530143491714D-14,127.0D0,          73P     61
-3.11060286983428D-14;                                                73P     62
508,4,0,15,5,1,0,0,15,11,0,0,0,15,7,0,0,0,15,10,1,0;                  75P     63
510,67,1,1,75;                                                        77P     64
116,-1.49999999999999D0,131.675D0,0.0D0,0;                            79P     65
123,-1.0D0,0.0D0,0.0D0;                                               81P     66
190,79,81,85;                                                         83P     67
123,0.0D0,0.0D0,1.0D0;                                                85P     68
100,0.0D0,0.0D0,0.0D0,136.35D0,0.0D0,-136.35D0,                       87P     69
1.66980591063742D-14;                                                 87P     70
508,2,0,15,12,0,0,0,15,4,0,0;                                         89P     71
508,2,0,15,8,1,0,0,15,11,1,0;                                         91P     72
510,83,2,1,89,91;                                                     93P     73
116,0.0D0,0.0D0,0.0D0,0;                                              95P     74
123,1.0D0,0.0D0,0.0D0;                                                97P     75
192,95,97,136.35D0,101;                                               99P     76
123,0.0D0,1.0D0,0.0D0;                                               101P     77
508,4,0,15,1,1,0,0,15,12,1,0,0,15,3,0,0,0,15,9,0,0;                  103P     78
510,99,1,1,103;                                                      105P     79
514,6,29,1,47,1,65,1,77,1,93,1,105,1;                                107P     80
186,107,1,0;                                                         109P     81
314,30.9803992509842D0,30.9803992509842D0,30.9803992509842D0,        111P     82
15HGummi (schwarz);                                                  111P     83
S      1G      3D    112P     83                                        T      1
