ISO-10303-21;
HEADER;
/****************************************************************
 * Generated by software with PDE/Lib inside                    *
 * PDElib Version v51a, created Thu 12/14/2006                  *
 * International Technegroup Inc. (www.iti-oh.com)              *
 ****************************************************************/
FILE_DESCRIPTION((''),'2;1');
FILE_NAME('J:\\Downloadzeichnungen\\Sven\\Neuer Ordner\\PN63\\PN63.stp','2009-03-12T16:03:56',('hasers'),(''),'Autodesk Inventor 2008','Autodesk Inventor 2008','');
FILE_SCHEMA(('AUTOMOTIVE_DESIGN { 1 0 10303 214 1 1 1 1 }'));
ENDSEC;
DATA;
#5=APPLICATION_CONTEXT('automotive design');
#6=APPLICATION_PROTOCOL_DEFINITION('International Standard','automotive_design',2001,#5);
#7=PRODUCT_CONTEXT('',#5,'mechanical');
#8=PRODUCT('PN63','PN63',$,(#7));
#9=PRODUCT_RELATED_PRODUCT_CATEGORY('part',$,(#8));
#10=PRODUCT_DEFINITION_FORMATION('',$,#8);
#11=PRODUCT_DEFINITION_CONTEXT('part definition',#5,'design');
#12=PRODUCT_DEFINITION('',$,#10,#11);
#18=(NAMED_UNIT(*)PLANE_ANGLE_UNIT()SI_UNIT($,.RADIAN.));
#19=DIMENSIONAL_EXPONENTS(0.0,0.0,0.0,0.0,0.0,0.0,0.0);
#20=PLANE_ANGLE_MEASURE_WITH_UNIT(PLANE_ANGLE_MEASURE(0.017453292500000),#18);
#24=(CONVERSION_BASED_UNIT('DEGREE',#20)NAMED_UNIT(#19)PLANE_ANGLE_UNIT());
#28=(NAMED_UNIT(*)SI_UNIT($,.STERADIAN.)SOLID_ANGLE_UNIT());
#32=(LENGTH_UNIT()NAMED_UNIT(*)SI_UNIT(.MILLI.,.METRE.));
#34=UNCERTAINTY_MEASURE_WITH_UNIT(LENGTH_MEASURE(0.010000000000000),#32,'DISTANCE_ACCURACY_VALUE','');
#36=(GEOMETRIC_REPRESENTATION_CONTEXT(3)GLOBAL_UNCERTAINTY_ASSIGNED_CONTEXT((#34))GLOBAL_UNIT_ASSIGNED_CONTEXT((#24,#28,#32))REPRESENTATION_CONTEXT('None','None'));
#37=AXIS2_PLACEMENT_3D('',#38,#39,#40);
#38=CARTESIAN_POINT('',(0.0,0.0,0.0));
#39=DIRECTION('',(0.0,0.0,1.0));
#40=DIRECTION('',(1.0,0.0,0.0));
#41=SHAPE_REPRESENTATION('',(#37),#36);
#42=PRODUCT_DEFINITION_SHAPE('','',#12);
#43=SHAPE_DEFINITION_REPRESENTATION(#42,#41);
#49=(NAMED_UNIT(*)PLANE_ANGLE_UNIT()SI_UNIT($,.RADIAN.));
#50=DIMENSIONAL_EXPONENTS(0.0,0.0,0.0,0.0,0.0,0.0,0.0);
#51=PLANE_ANGLE_MEASURE_WITH_UNIT(PLANE_ANGLE_MEASURE(0.017453292500000),#49);
#55=(CONVERSION_BASED_UNIT('DEGREE',#51)NAMED_UNIT(#50)PLANE_ANGLE_UNIT());
#59=(NAMED_UNIT(*)SI_UNIT($,.STERADIAN.)SOLID_ANGLE_UNIT());
#63=(LENGTH_UNIT()NAMED_UNIT(*)SI_UNIT(.MILLI.,.METRE.));
#65=UNCERTAINTY_MEASURE_WITH_UNIT(LENGTH_MEASURE(0.000001000000000),#63,'DISTANCE_ACCURACY_VALUE','');
#67=(GEOMETRIC_REPRESENTATION_CONTEXT(3)GLOBAL_UNCERTAINTY_ASSIGNED_CONTEXT((#65))GLOBAL_UNIT_ASSIGNED_CONTEXT((#55,#59,#63))REPRESENTATION_CONTEXT('','3D'));
#68=CARTESIAN_POINT('',(-20.948499999999999,-4.069979E-016,4.0));
#69=CARTESIAN_POINT('',(-20.948499999999999,-4.069979E-016,0.0));
#70=CARTESIAN_POINT('',(-20.948499999999999,-3.323499999999999,4.0));
#71=CARTESIAN_POINT('',(-20.948499999999999,-3.323499999999999,0.0));
#72=CARTESIAN_POINT('',(-17.625000000000000,-3.323499999999999,4.0));
#73=CARTESIAN_POINT('',(-17.625000000000000,-3.323499999999999,0.0));
#74=CARTESIAN_POINT('',(-14.301500000000001,-3.323499999999998,4.0));
#75=CARTESIAN_POINT('',(-14.301500000000001,-3.323499999999998,0.0));
#76=CARTESIAN_POINT('',(-14.301500000000001,4.069979E-016,4.0));
#77=CARTESIAN_POINT('',(-14.301500000000001,4.069979E-016,0.0));
#78=CARTESIAN_POINT('',(-14.301500000000001,3.323499999999999,4.0));
#79=CARTESIAN_POINT('',(-14.301500000000001,3.323499999999999,0.0));
#80=CARTESIAN_POINT('',(-17.625000000000000,3.323499999999999,4.0));
#81=CARTESIAN_POINT('',(-17.625000000000000,3.323499999999999,0.0));
#82=CARTESIAN_POINT('',(-20.948499999999999,3.323499999999998,4.0));
#83=CARTESIAN_POINT('',(-20.948499999999999,3.323499999999998,0.0));
#84=CARTESIAN_POINT('',(-20.948499999999999,-4.069979E-016,4.0));
#85=CARTESIAN_POINT('',(-20.948499999999999,-4.069979E-016,0.0));
#93=(BOUNDED_SURFACE()B_SPLINE_SURFACE(1,2,((#68,#70,#72,#74,#76,#78,#80,#82,#84),(#69,#71,#73,#75,#77,#79,#81,#83,#85)),.UNSPECIFIED.,.F.,.T.,.U.)B_SPLINE_SURFACE_WITH_KNOTS((2,2),(3,2,2,2,3),(-15.083633162452641,-13.880082688554642),(0.0,5.220541592102839,10.441083184205677,15.661624776308516,20.882166368411355),.UNSPECIFIED.)GEOMETRIC_REPRESENTATION_ITEM()RATIONAL_B_SPLINE_SURFACE(((1.0,0.707106781186548,1.0,0.707106781186548,1.0,0.707106781186548,1.0,0.707106781186548,1.0),(1.0,0.707106781186548,1.0,0.707106781186548,1.0,0.707106781186548,1.0,0.707106781186548,1.0)))REPRESENTATION_ITEM('')SURFACE());
#94=CARTESIAN_POINT('',(-20.948500000000003,-4.069979E-016,0.0));
#95=VERTEX_POINT('',#94);
#96=CARTESIAN_POINT('',(-17.625000000000000,0.0,0.0));
#97=DIRECTION('',(0.0,0.0,1.0));
#98=DIRECTION('',(1.0,0.0,0.0));
#99=AXIS2_PLACEMENT_3D('',#96,#97,#98);
#100=CIRCLE('',#99,3.323500000000000);
#101=EDGE_CURVE('',#95,#95,#100,.T.);
#102=ORIENTED_EDGE('',*,*,#101,.F.);
#103=EDGE_LOOP('',(#102));
#104=FACE_OUTER_BOUND('',#103,.T.);
#105=CARTESIAN_POINT('',(-14.301500000000003,0.0,4.0));
#106=VERTEX_POINT('',#105);
#107=CARTESIAN_POINT('',(-17.625000000000000,0.0,4.000000000000004));
#108=DIRECTION('',(0.0,0.0,-1.0));
#109=DIRECTION('',(1.0,0.0,0.0));
#110=AXIS2_PLACEMENT_3D('',#107,#108,#109);
#111=CIRCLE('',#110,3.323500000000000);
#112=EDGE_CURVE('',#106,#106,#111,.T.);
#113=ORIENTED_EDGE('',*,*,#112,.F.);
#114=EDGE_LOOP('',(#113));
#115=FACE_BOUND('',#114,.T.);
#116=ADVANCED_FACE('',(#104,#115),#93,.F.);
#117=CARTESIAN_POINT('',(14.301500000000001,-4.069979E-016,4.0));
#118=CARTESIAN_POINT('',(14.301500000000001,-4.069979E-016,0.0));
#119=CARTESIAN_POINT('',(14.301500000000001,-3.323499999999999,4.0));
#120=CARTESIAN_POINT('',(14.301500000000001,-3.323499999999999,0.0));
#121=CARTESIAN_POINT('',(17.625000000000000,-3.323499999999999,4.0));
#122=CARTESIAN_POINT('',(17.625000000000000,-3.323499999999999,0.0));
#123=CARTESIAN_POINT('',(20.948499999999999,-3.323499999999998,4.0));
#124=CARTESIAN_POINT('',(20.948499999999999,-3.323499999999998,0.0));
#125=CARTESIAN_POINT('',(20.948499999999999,4.069979E-016,4.0));
#126=CARTESIAN_POINT('',(20.948499999999999,4.069979E-016,0.0));
#127=CARTESIAN_POINT('',(20.948499999999999,3.323499999999999,4.0));
#128=CARTESIAN_POINT('',(20.948499999999999,3.323499999999999,0.0));
#129=CARTESIAN_POINT('',(17.625000000000000,3.323499999999999,4.0));
#130=CARTESIAN_POINT('',(17.625000000000000,3.323499999999999,0.0));
#131=CARTESIAN_POINT('',(14.301500000000001,3.323499999999998,4.0));
#132=CARTESIAN_POINT('',(14.301500000000001,3.323499999999998,0.0));
#133=CARTESIAN_POINT('',(14.301500000000001,-4.069979E-016,4.0));
#134=CARTESIAN_POINT('',(14.301500000000001,-4.069979E-016,0.0));
#142=(BOUNDED_SURFACE()B_SPLINE_SURFACE(1,2,((#117,#119,#121,#123,#125,#127,#129,#131,#133),(#118,#120,#122,#124,#126,#128,#130,#132,#134)),.UNSPECIFIED.,.F.,.T.,.U.)B_SPLINE_SURFACE_WITH_KNOTS((2,2),(3,2,2,2,3),(-15.083633162452641,-13.880082688554642),(0.0,5.220541592102839,10.441083184205677,15.661624776308516,20.882166368411355),.UNSPECIFIED.)GEOMETRIC_REPRESENTATION_ITEM()RATIONAL_B_SPLINE_SURFACE(((1.0,0.707106781186548,1.0,0.707106781186548,1.0,0.707106781186548,1.0,0.707106781186548,1.0),(1.0,0.707106781186548,1.0,0.707106781186548,1.0,0.707106781186548,1.0,0.707106781186548,1.0)))REPRESENTATION_ITEM('')SURFACE());
#143=CARTESIAN_POINT('',(14.301500000000003,-4.069979E-016,0.0));
#144=VERTEX_POINT('',#143);
#145=CARTESIAN_POINT('',(17.625000000000000,0.0,0.0));
#146=DIRECTION('',(0.0,0.0,1.0));
#147=DIRECTION('',(1.0,0.0,0.0));
#148=AXIS2_PLACEMENT_3D('',#145,#146,#147);
#149=CIRCLE('',#148,3.323500000000000);
#150=EDGE_CURVE('',#144,#144,#149,.T.);
#151=ORIENTED_EDGE('',*,*,#150,.F.);
#152=EDGE_LOOP('',(#151));
#153=FACE_OUTER_BOUND('',#152,.T.);
#154=CARTESIAN_POINT('',(20.948500000000003,0.0,4.0));
#155=VERTEX_POINT('',#154);
#156=CARTESIAN_POINT('',(17.625000000000000,0.0,4.000000000000004));
#157=DIRECTION('',(0.0,0.0,-1.0));
#158=DIRECTION('',(1.0,0.0,0.0));
#159=AXIS2_PLACEMENT_3D('',#156,#157,#158);
#160=CIRCLE('',#159,3.323500000000000);
#161=EDGE_CURVE('',#155,#155,#160,.T.);
#162=ORIENTED_EDGE('',*,*,#161,.F.);
#163=EDGE_LOOP('',(#162));
#164=FACE_BOUND('',#163,.T.);
#165=ADVANCED_FACE('',(#153,#164),#142,.F.);
#166=CARTESIAN_POINT('',(-17.625000000000000,0.0,3.000000000000000));
#167=DIRECTION('',(0.0,0.0,1.0));
#168=DIRECTION('',(-1.0,0.0,0.0));
#169=AXIS2_PLACEMENT_3D('',#166,#167,#168);
#170=CYLINDRICAL_SURFACE('',#169,5.0);
#171=CARTESIAN_POINT('',(-12.625000000000002,6.123032E-016,4.0));
#172=VERTEX_POINT('',#171);
#173=CARTESIAN_POINT('',(-17.625000000000000,0.0,4.0));
#174=DIRECTION('',(0.0,0.0,-1.0));
#175=DIRECTION('',(-1.0,0.0,0.0));
#176=AXIS2_PLACEMENT_3D('',#173,#174,#175);
#177=CIRCLE('',#176,5.0);
#178=EDGE_CURVE('',#172,#172,#177,.T.);
#179=ORIENTED_EDGE('',*,*,#178,.T.);
#180=EDGE_LOOP('',(#179));
#181=FACE_OUTER_BOUND('',#180,.T.);
#182=CARTESIAN_POINT('',(-12.625000000000002,6.123032E-016,3.000000000000000));
#183=VERTEX_POINT('',#182);
#184=CARTESIAN_POINT('',(-17.625000000000000,0.0,3.000000000000000));
#185=DIRECTION('',(0.0,0.0,-1.0));
#186=DIRECTION('',(-1.0,0.0,0.0));
#187=AXIS2_PLACEMENT_3D('',#184,#185,#186);
#188=CIRCLE('',#187,5.0);
#189=EDGE_CURVE('',#183,#183,#188,.T.);
#190=ORIENTED_EDGE('',*,*,#189,.F.);
#191=EDGE_LOOP('',(#190));
#192=FACE_BOUND('',#191,.T.);
#193=ADVANCED_FACE('',(#181,#192),#170,.T.);
#194=CARTESIAN_POINT('',(-17.625000000000000,0.0,4.0));
#195=DIRECTION('',(0.0,0.0,-1.0));
#196=DIRECTION('',(-1.0,0.0,0.0));
#197=AXIS2_PLACEMENT_3D('',#194,#195,#196);
#198=PLANE('',#197);
#199=ORIENTED_EDGE('',*,*,#178,.F.);
#200=EDGE_LOOP('',(#199));
#201=FACE_OUTER_BOUND('',#200,.T.);
#202=ORIENTED_EDGE('',*,*,#112,.T.);
#203=EDGE_LOOP('',(#202));
#204=FACE_BOUND('',#203,.T.);
#205=ADVANCED_FACE('',(#201,#204),#198,.F.);
#206=CARTESIAN_POINT('',(17.625000000000000,0.0,3.000000000000000));
#207=DIRECTION('',(0.0,0.0,1.0));
#208=DIRECTION('',(-1.0,0.0,0.0));
#209=AXIS2_PLACEMENT_3D('',#206,#207,#208);
#210=CYLINDRICAL_SURFACE('',#209,5.0);
#211=CARTESIAN_POINT('',(22.625000000000000,6.123032E-016,4.0));
#212=VERTEX_POINT('',#211);
#213=CARTESIAN_POINT('',(17.625000000000000,0.0,4.0));
#214=DIRECTION('',(0.0,0.0,-1.0));
#215=DIRECTION('',(-1.0,0.0,0.0));
#216=AXIS2_PLACEMENT_3D('',#213,#214,#215);
#217=CIRCLE('',#216,5.0);
#218=EDGE_CURVE('',#212,#212,#217,.T.);
#219=ORIENTED_EDGE('',*,*,#218,.T.);
#220=EDGE_LOOP('',(#219));
#221=FACE_OUTER_BOUND('',#220,.T.);
#222=CARTESIAN_POINT('',(22.625000000000000,6.123032E-016,3.000000000000000));
#223=VERTEX_POINT('',#222);
#224=CARTESIAN_POINT('',(17.625000000000000,0.0,3.000000000000000));
#225=DIRECTION('',(0.0,0.0,-1.0));
#226=DIRECTION('',(-1.0,0.0,0.0));
#227=AXIS2_PLACEMENT_3D('',#224,#225,#226);
#228=CIRCLE('',#227,5.0);
#229=EDGE_CURVE('',#223,#223,#228,.T.);
#230=ORIENTED_EDGE('',*,*,#229,.F.);
#231=EDGE_LOOP('',(#230));
#232=FACE_BOUND('',#231,.T.);
#233=ADVANCED_FACE('',(#221,#232),#210,.T.);
#234=CARTESIAN_POINT('',(17.625000000000000,0.0,4.0));
#235=DIRECTION('',(0.0,0.0,-1.0));
#236=DIRECTION('',(-1.0,0.0,0.0));
#237=AXIS2_PLACEMENT_3D('',#234,#235,#236);
#238=PLANE('',#237);
#239=ORIENTED_EDGE('',*,*,#218,.F.);
#240=EDGE_LOOP('',(#239));
#241=FACE_OUTER_BOUND('',#240,.T.);
#242=ORIENTED_EDGE('',*,*,#161,.T.);
#243=EDGE_LOOP('',(#242));
#244=FACE_BOUND('',#243,.T.);
#245=ADVANCED_FACE('',(#241,#244),#238,.F.);
#246=CARTESIAN_POINT('',(-17.625000000000000,6.499999999999996,0.0));
#247=DIRECTION('',(0.0,1.0,0.0));
#248=DIRECTION('',(0.0,0.0,1.0));
#249=AXIS2_PLACEMENT_3D('',#246,#247,#248);
#250=PLANE('',#249);
#251=CARTESIAN_POINT('',(-17.625000000000000,6.499999999999996,3.000000000000000));
#252=VERTEX_POINT('',#251);
#253=CARTESIAN_POINT('',(17.625000000000000,6.499999999999996,3.000000000000000));
#254=VERTEX_POINT('',#253);
#255=CARTESIAN_POINT('',(-17.625000000000000,6.499999999999996,3.000000000000000));
#256=DIRECTION('',(1.0,0.0,0.0));
#257=VECTOR('',#256,35.250000000000000);
#258=LINE('',#255,#257);
#259=EDGE_CURVE('',#252,#254,#258,.T.);
#260=ORIENTED_EDGE('',*,*,#259,.T.);
#261=CARTESIAN_POINT('',(17.625000000000000,6.499999999999996,0.0));
#262=VERTEX_POINT('',#261);
#263=CARTESIAN_POINT('',(17.625000000000000,6.499999999999996,0.0));
#264=DIRECTION('',(0.0,0.0,1.0));
#265=VECTOR('',#264,3.000000000000000);
#266=LINE('',#263,#265);
#267=EDGE_CURVE('',#262,#254,#266,.T.);
#268=ORIENTED_EDGE('',*,*,#267,.F.);
#269=CARTESIAN_POINT('',(-17.625000000000000,6.499999999999996,0.0));
#270=VERTEX_POINT('',#269);
#271=CARTESIAN_POINT('',(17.625000000000000,6.499999999999996,0.0));
#272=DIRECTION('',(-1.0,0.0,0.0));
#273=VECTOR('',#272,35.250000000000000);
#274=LINE('',#271,#273);
#275=EDGE_CURVE('',#262,#270,#274,.T.);
#276=ORIENTED_EDGE('',*,*,#275,.T.);
#277=CARTESIAN_POINT('',(-17.625000000000000,6.499999999999996,0.0));
#278=DIRECTION('',(0.0,0.0,1.0));
#279=VECTOR('',#278,3.000000000000000);
#280=LINE('',#277,#279);
#281=EDGE_CURVE('',#270,#252,#280,.T.);
#282=ORIENTED_EDGE('',*,*,#281,.T.);
#283=EDGE_LOOP('',(#260,#268,#276,#282));
#284=FACE_OUTER_BOUND('',#283,.T.);
#285=ADVANCED_FACE('',(#284),#250,.T.);
#286=CARTESIAN_POINT('',(17.625000000000000,0.0,0.0));
#287=DIRECTION('',(0.0,0.0,1.0));
#288=DIRECTION('',(0.0,-1.0,0.0));
#289=AXIS2_PLACEMENT_3D('',#286,#287,#288);
#290=CYLINDRICAL_SURFACE('',#289,6.500000000000000);
#291=CARTESIAN_POINT('',(17.625000000000000,-6.500000000000005,3.000000000000000));
#292=VERTEX_POINT('',#291);
#293=CARTESIAN_POINT('',(17.625000000000000,0.0,3.000000000000000));
#294=DIRECTION('',(0.0,0.0,-1.0));
#295=DIRECTION('',(0.0,-1.0,0.0));
#296=AXIS2_PLACEMENT_3D('',#293,#294,#295);
#297=CIRCLE('',#296,6.500000000000000);
#298=EDGE_CURVE('',#254,#292,#297,.T.);
#299=ORIENTED_EDGE('',*,*,#298,.T.);
#300=CARTESIAN_POINT('',(17.625000000000000,-6.500000000000005,0.0));
#301=VERTEX_POINT('',#300);
#302=CARTESIAN_POINT('',(17.625000000000000,-6.500000000000005,0.0));
#303=DIRECTION('',(0.0,0.0,1.0));
#304=VECTOR('',#303,3.000000000000000);
#305=LINE('',#302,#304);
#306=EDGE_CURVE('',#301,#292,#305,.T.);
#307=ORIENTED_EDGE('',*,*,#306,.F.);
#308=CARTESIAN_POINT('',(17.625000000000000,0.0,0.0));
#309=DIRECTION('',(0.0,0.0,1.0));
#310=DIRECTION('',(0.0,-1.0,0.0));
#311=AXIS2_PLACEMENT_3D('',#308,#309,#310);
#312=CIRCLE('',#311,6.500000000000000);
#313=EDGE_CURVE('',#301,#262,#312,.T.);
#314=ORIENTED_EDGE('',*,*,#313,.T.);
#315=ORIENTED_EDGE('',*,*,#267,.T.);
#316=EDGE_LOOP('',(#299,#307,#314,#315));
#317=FACE_OUTER_BOUND('',#316,.T.);
#318=ADVANCED_FACE('',(#317),#290,.T.);
#319=CARTESIAN_POINT('',(17.625000000000000,-6.500000000000005,0.0));
#320=DIRECTION('',(0.0,-1.0,0.0));
#321=DIRECTION('',(0.0,0.0,-1.0));
#322=AXIS2_PLACEMENT_3D('',#319,#320,#321);
#323=PLANE('',#322);
#324=CARTESIAN_POINT('',(-17.625000000000000,-6.500000000000005,3.000000000000000));
#325=VERTEX_POINT('',#324);
#326=CARTESIAN_POINT('',(17.625000000000000,-6.500000000000005,3.000000000000000));
#327=DIRECTION('',(-1.0,0.0,0.0));
#328=VECTOR('',#327,35.250000000000000);
#329=LINE('',#326,#328);
#330=EDGE_CURVE('',#292,#325,#329,.T.);
#331=ORIENTED_EDGE('',*,*,#330,.T.);
#332=CARTESIAN_POINT('',(-17.625000000000000,-6.500000000000005,0.0));
#333=VERTEX_POINT('',#332);
#334=CARTESIAN_POINT('',(-17.625000000000000,-6.500000000000005,0.0));
#335=DIRECTION('',(0.0,0.0,1.0));
#336=VECTOR('',#335,3.000000000000000);
#337=LINE('',#334,#336);
#338=EDGE_CURVE('',#333,#325,#337,.T.);
#339=ORIENTED_EDGE('',*,*,#338,.F.);
#340=CARTESIAN_POINT('',(-17.625000000000000,-6.500000000000005,0.0));
#341=DIRECTION('',(1.0,0.0,0.0));
#342=VECTOR('',#341,35.250000000000000);
#343=LINE('',#340,#342);
#344=EDGE_CURVE('',#333,#301,#343,.T.);
#345=ORIENTED_EDGE('',*,*,#344,.T.);
#346=ORIENTED_EDGE('',*,*,#306,.T.);
#347=EDGE_LOOP('',(#331,#339,#345,#346));
#348=FACE_OUTER_BOUND('',#347,.T.);
#349=ADVANCED_FACE('',(#348),#323,.T.);
#350=CARTESIAN_POINT('',(-17.625000000000000,0.0,0.0));
#351=DIRECTION('',(0.0,0.0,1.0));
#352=DIRECTION('',(0.0,1.0,0.0));
#353=AXIS2_PLACEMENT_3D('',#350,#351,#352);
#354=CYLINDRICAL_SURFACE('',#353,6.499999999999994);
#355=CARTESIAN_POINT('',(-17.625000000000000,0.0,3.000000000000000));
#356=DIRECTION('',(0.0,0.0,-1.0));
#357=DIRECTION('',(0.0,1.0,0.0));
#358=AXIS2_PLACEMENT_3D('',#355,#356,#357);
#359=CIRCLE('',#358,6.499999999999994);
#360=EDGE_CURVE('',#325,#252,#359,.T.);
#361=ORIENTED_EDGE('',*,*,#360,.T.);
#362=ORIENTED_EDGE('',*,*,#281,.F.);
#363=CARTESIAN_POINT('',(-17.625000000000000,0.0,0.0));
#364=DIRECTION('',(0.0,0.0,1.0));
#365=DIRECTION('',(0.0,1.0,0.0));
#366=AXIS2_PLACEMENT_3D('',#363,#364,#365);
#367=CIRCLE('',#366,6.499999999999994);
#368=EDGE_CURVE('',#270,#333,#367,.T.);
#369=ORIENTED_EDGE('',*,*,#368,.T.);
#370=ORIENTED_EDGE('',*,*,#338,.T.);
#371=EDGE_LOOP('',(#361,#362,#369,#370));
#372=FACE_OUTER_BOUND('',#371,.T.);
#373=ADVANCED_FACE('',(#372),#354,.T.);
#374=CARTESIAN_POINT('',(3.885781E-015,-2.775558E-015,0.0));
#375=DIRECTION('',(0.0,0.0,1.0));
#376=DIRECTION('',(1.0,0.0,0.0));
#377=AXIS2_PLACEMENT_3D('',#374,#375,#376);
#378=PLANE('',#377);
#379=ORIENTED_EDGE('',*,*,#368,.F.);
#380=ORIENTED_EDGE('',*,*,#275,.F.);
#381=ORIENTED_EDGE('',*,*,#313,.F.);
#382=ORIENTED_EDGE('',*,*,#344,.F.);
#383=EDGE_LOOP('',(#379,#380,#381,#382));
#384=FACE_OUTER_BOUND('',#383,.T.);
#385=ORIENTED_EDGE('',*,*,#101,.T.);
#386=EDGE_LOOP('',(#385));
#387=FACE_BOUND('',#386,.T.);
#388=ORIENTED_EDGE('',*,*,#150,.T.);
#389=EDGE_LOOP('',(#388));
#390=FACE_BOUND('',#389,.T.);
#391=ADVANCED_FACE('',(#384,#387,#390),#378,.F.);
#392=CARTESIAN_POINT('',(3.885781E-015,-2.775558E-015,3.000000000000000));
#393=DIRECTION('',(0.0,0.0,1.0));
#394=DIRECTION('',(1.0,0.0,0.0));
#395=AXIS2_PLACEMENT_3D('',#392,#393,#394);
#396=PLANE('',#395);
#397=ORIENTED_EDGE('',*,*,#259,.F.);
#398=ORIENTED_EDGE('',*,*,#360,.F.);
#399=ORIENTED_EDGE('',*,*,#330,.F.);
#400=ORIENTED_EDGE('',*,*,#298,.F.);
#401=EDGE_LOOP('',(#397,#398,#399,#400));
#402=FACE_OUTER_BOUND('',#401,.T.);
#403=ORIENTED_EDGE('',*,*,#189,.T.);
#404=EDGE_LOOP('',(#403));
#405=FACE_BOUND('',#404,.T.);
#406=ORIENTED_EDGE('',*,*,#229,.T.);
#407=EDGE_LOOP('',(#406));
#408=FACE_BOUND('',#407,.T.);
#409=ADVANCED_FACE('',(#402,#405,#408),#396,.T.);
#410=CLOSED_SHELL('',(#116,#165,#193,#205,#233,#245,#285,#318,#349,#373,#391,#409));
#411=MANIFOLD_SOLID_BREP('',#410);
#412=COLOUR_RGB('Metall - Stahl',0.639216005802155,0.639216005802155,0.686275005340576);
#413=FILL_AREA_STYLE_COLOUR('Metall - Stahl',#412);
#414=FILL_AREA_STYLE('Metall - Stahl',(#413));
#415=SURFACE_STYLE_FILL_AREA(#414);
#416=SURFACE_SIDE_STYLE('Metall - Stahl',(#415));
#417=SURFACE_STYLE_USAGE(.BOTH.,#416);
#418=PRESENTATION_STYLE_ASSIGNMENT((#417));
#419=STYLED_ITEM('',(#418),#411);
#420=MECHANICAL_DESIGN_GEOMETRIC_PRESENTATION_REPRESENTATION('',(#419),#36);
#421=ADVANCED_BREP_SHAPE_REPRESENTATION('ABSR',(#411),#36);
#422=SHAPE_REPRESENTATION_RELATIONSHIP('SRR','None',#421,#41);
ENDSEC;
END-ISO-10303-21;
