ISO-10303-21;
HEADER;
/****************************************************************
 * Generated by software with PDE/Lib inside                    *
 * PDElib Version v51a, created Thu 12/14/2006                  *
 * International Technegroup Inc. (www.iti-oh.com)              *
 ****************************************************************/
FILE_DESCRIPTION((''),'2;1');
FILE_NAME('J:\\Downloadzeichnungen\\Sven\\Neuer Ordner\\PN35\\PN35.stp','2009-03-12T16:03:56',('hasers'),(''),'Autodesk Inventor 2008','Autodesk Inventor 2008','');
FILE_SCHEMA(('AUTOMOTIVE_DESIGN { 1 0 10303 214 1 1 1 1 }'));
ENDSEC;
DATA;
#5=APPLICATION_CONTEXT('automotive design');
#6=APPLICATION_PROTOCOL_DEFINITION('International Standard','automotive_design',2001,#5);
#7=PRODUCT_CONTEXT('',#5,'mechanical');
#8=PRODUCT('PN35','PN35',$,(#7));
#9=PRODUCT_RELATED_PRODUCT_CATEGORY('part',$,(#8));
#10=PRODUCT_DEFINITION_FORMATION('',$,#8);
#11=PRODUCT_DEFINITION_CONTEXT('part definition',#5,'design');
#12=PRODUCT_DEFINITION('',$,#10,#11);
#18=(NAMED_UNIT(*)PLANE_ANGLE_UNIT()SI_UNIT($,.RADIAN.));
#19=DIMENSIONAL_EXPONENTS(0.0,0.0,0.0,0.0,0.0,0.0,0.0);
#20=PLANE_ANGLE_MEASURE_WITH_UNIT(PLANE_ANGLE_MEASURE(0.017453292500000),#18);
#24=(CONVERSION_BASED_UNIT('DEGREE',#20)NAMED_UNIT(#19)PLANE_ANGLE_UNIT());
#28=(NAMED_UNIT(*)SI_UNIT($,.STERADIAN.)SOLID_ANGLE_UNIT());
#32=(LENGTH_UNIT()NAMED_UNIT(*)SI_UNIT(.MILLI.,.METRE.));
#34=UNCERTAINTY_MEASURE_WITH_UNIT(LENGTH_MEASURE(0.010000000000000),#32,'DISTANCE_ACCURACY_VALUE','');
#36=(GEOMETRIC_REPRESENTATION_CONTEXT(3)GLOBAL_UNCERTAINTY_ASSIGNED_CONTEXT((#34))GLOBAL_UNIT_ASSIGNED_CONTEXT((#24,#28,#32))REPRESENTATION_CONTEXT('None','None'));
#37=AXIS2_PLACEMENT_3D('',#38,#39,#40);
#38=CARTESIAN_POINT('',(0.0,0.0,0.0));
#39=DIRECTION('',(0.0,0.0,1.0));
#40=DIRECTION('',(1.0,0.0,0.0));
#41=SHAPE_REPRESENTATION('',(#37),#36);
#42=PRODUCT_DEFINITION_SHAPE('','',#12);
#43=SHAPE_DEFINITION_REPRESENTATION(#42,#41);
#49=(NAMED_UNIT(*)PLANE_ANGLE_UNIT()SI_UNIT($,.RADIAN.));
#50=DIMENSIONAL_EXPONENTS(0.0,0.0,0.0,0.0,0.0,0.0,0.0);
#51=PLANE_ANGLE_MEASURE_WITH_UNIT(PLANE_ANGLE_MEASURE(0.017453292500000),#49);
#55=(CONVERSION_BASED_UNIT('DEGREE',#51)NAMED_UNIT(#50)PLANE_ANGLE_UNIT());
#59=(NAMED_UNIT(*)SI_UNIT($,.STERADIAN.)SOLID_ANGLE_UNIT());
#63=(LENGTH_UNIT()NAMED_UNIT(*)SI_UNIT(.MILLI.,.METRE.));
#65=UNCERTAINTY_MEASURE_WITH_UNIT(LENGTH_MEASURE(0.000001000000000),#63,'DISTANCE_ACCURACY_VALUE','');
#67=(GEOMETRIC_REPRESENTATION_CONTEXT(3)GLOBAL_UNCERTAINTY_ASSIGNED_CONTEXT((#65))GLOBAL_UNIT_ASSIGNED_CONTEXT((#55,#59,#63))REPRESENTATION_CONTEXT('','3D'));
#68=CARTESIAN_POINT('',(-17.133500000000002,-3.010695E-016,4.0));
#69=CARTESIAN_POINT('',(-17.133500000000002,-3.010695E-016,0.0));
#70=CARTESIAN_POINT('',(-17.133500000000002,-2.458500000000001,4.0));
#71=CARTESIAN_POINT('',(-17.133500000000002,-2.458500000000001,0.0));
#72=CARTESIAN_POINT('',(-14.675000000000001,-2.458500000000001,4.0));
#73=CARTESIAN_POINT('',(-14.675000000000001,-2.458500000000001,0.0));
#74=CARTESIAN_POINT('',(-12.216500000000000,-2.458500000000000,4.0));
#75=CARTESIAN_POINT('',(-12.216500000000000,-2.458500000000000,0.0));
#76=CARTESIAN_POINT('',(-12.216500000000000,3.010695E-016,4.0));
#77=CARTESIAN_POINT('',(-12.216500000000000,3.010695E-016,0.0));
#78=CARTESIAN_POINT('',(-12.216500000000000,2.458500000000001,4.0));
#79=CARTESIAN_POINT('',(-12.216500000000000,2.458500000000001,0.0));
#80=CARTESIAN_POINT('',(-14.675000000000001,2.458500000000001,4.0));
#81=CARTESIAN_POINT('',(-14.675000000000001,2.458500000000001,0.0));
#82=CARTESIAN_POINT('',(-17.133500000000002,2.458500000000000,4.0));
#83=CARTESIAN_POINT('',(-17.133500000000002,2.458500000000000,0.0));
#84=CARTESIAN_POINT('',(-17.133500000000002,-3.010695E-016,4.0));
#85=CARTESIAN_POINT('',(-17.133500000000002,-3.010695E-016,0.0));
#93=(BOUNDED_SURFACE()B_SPLINE_SURFACE(1,2,((#68,#70,#72,#74,#76,#78,#80,#82,#84),(#69,#71,#73,#75,#77,#79,#81,#83,#85)),.UNSPECIFIED.,.F.,.T.,.U.)B_SPLINE_SURFACE_WITH_KNOTS((2,2),(3,2,2,2,3),(-17.089022155807744,-15.462013817390009),(0.0,3.861802769425253,7.723605538850507,11.585408308275760,15.447211077701013),.UNSPECIFIED.)GEOMETRIC_REPRESENTATION_ITEM()RATIONAL_B_SPLINE_SURFACE(((1.0,0.707106781186548,1.0,0.707106781186548,1.0,0.707106781186548,1.0,0.707106781186548,1.0),(1.0,0.707106781186548,1.0,0.707106781186548,1.0,0.707106781186548,1.0,0.707106781186548,1.0)))REPRESENTATION_ITEM('')SURFACE());
#94=CARTESIAN_POINT('',(-17.133500000000002,-3.010695E-016,0.0));
#95=VERTEX_POINT('',#94);
#96=CARTESIAN_POINT('',(-14.675000000000001,0.0,0.0));
#97=DIRECTION('',(0.0,0.0,1.0));
#98=DIRECTION('',(1.0,0.0,0.0));
#99=AXIS2_PLACEMENT_3D('',#96,#97,#98);
#100=CIRCLE('',#99,2.458500000000000);
#101=EDGE_CURVE('',#95,#95,#100,.T.);
#102=ORIENTED_EDGE('',*,*,#101,.F.);
#103=EDGE_LOOP('',(#102));
#104=FACE_OUTER_BOUND('',#103,.T.);
#105=CARTESIAN_POINT('',(-12.216500000000000,0.0,4.0));
#106=VERTEX_POINT('',#105);
#107=CARTESIAN_POINT('',(-14.675000000000001,0.0,3.999999999999999));
#108=DIRECTION('',(0.0,0.0,-1.0));
#109=DIRECTION('',(1.0,0.0,0.0));
#110=AXIS2_PLACEMENT_3D('',#107,#108,#109);
#111=CIRCLE('',#110,2.458500000000000);
#112=EDGE_CURVE('',#106,#106,#111,.T.);
#113=ORIENTED_EDGE('',*,*,#112,.F.);
#114=EDGE_LOOP('',(#113));
#115=FACE_BOUND('',#114,.T.);
#116=ADVANCED_FACE('',(#104,#115),#93,.F.);
#117=CARTESIAN_POINT('',(12.216500000000003,5.090260E-015,4.0));
#118=CARTESIAN_POINT('',(12.216500000000003,5.090260E-015,0.0));
#119=CARTESIAN_POINT('',(12.216500000000002,-2.458499999999996,4.0));
#120=CARTESIAN_POINT('',(12.216500000000002,-2.458499999999996,0.0));
#121=CARTESIAN_POINT('',(14.675000000000004,-2.458499999999996,4.0));
#122=CARTESIAN_POINT('',(14.675000000000004,-2.458499999999996,0.0));
#123=CARTESIAN_POINT('',(17.133500000000005,-2.458499999999995,4.0));
#124=CARTESIAN_POINT('',(17.133500000000005,-2.458499999999995,0.0));
#125=CARTESIAN_POINT('',(17.133500000000005,5.692399E-015,4.0));
#126=CARTESIAN_POINT('',(17.133500000000005,5.692399E-015,0.0));
#127=CARTESIAN_POINT('',(17.133500000000005,2.458500000000006,4.0));
#128=CARTESIAN_POINT('',(17.133500000000005,2.458500000000006,0.0));
#129=CARTESIAN_POINT('',(14.675000000000004,2.458500000000006,4.0));
#130=CARTESIAN_POINT('',(14.675000000000004,2.458500000000006,0.0));
#131=CARTESIAN_POINT('',(12.216500000000002,2.458500000000005,4.0));
#132=CARTESIAN_POINT('',(12.216500000000002,2.458500000000005,0.0));
#133=CARTESIAN_POINT('',(12.216500000000003,5.090260E-015,4.0));
#134=CARTESIAN_POINT('',(12.216500000000003,5.090260E-015,0.0));
#142=(BOUNDED_SURFACE()B_SPLINE_SURFACE(1,2,((#117,#119,#121,#123,#125,#127,#129,#131,#133),(#118,#120,#122,#124,#126,#128,#130,#132,#134)),.UNSPECIFIED.,.F.,.T.,.U.)B_SPLINE_SURFACE_WITH_KNOTS((2,2),(3,2,2,2,3),(-17.089022155807744,-15.462013817390009),(0.0,3.861802769425253,7.723605538850507,11.585408308275760,15.447211077701013),.UNSPECIFIED.)GEOMETRIC_REPRESENTATION_ITEM()RATIONAL_B_SPLINE_SURFACE(((1.0,0.707106781186548,1.0,0.707106781186548,1.0,0.707106781186548,1.0,0.707106781186548,1.0),(1.0,0.707106781186548,1.0,0.707106781186548,1.0,0.707106781186548,1.0,0.707106781186548,1.0)))REPRESENTATION_ITEM('')SURFACE());
#143=CARTESIAN_POINT('',(12.216500000000003,5.090260E-015,0.0));
#144=VERTEX_POINT('',#143);
#145=CARTESIAN_POINT('',(14.675000000000004,5.391329E-015,0.0));
#146=DIRECTION('',(0.0,0.0,1.0));
#147=DIRECTION('',(1.0,0.0,0.0));
#148=AXIS2_PLACEMENT_3D('',#145,#146,#147);
#149=CIRCLE('',#148,2.458500000000000);
#150=EDGE_CURVE('',#144,#144,#149,.T.);
#151=ORIENTED_EDGE('',*,*,#150,.F.);
#152=EDGE_LOOP('',(#151));
#153=FACE_OUTER_BOUND('',#152,.T.);
#154=CARTESIAN_POINT('',(17.133500000000005,5.391329E-015,4.0));
#155=VERTEX_POINT('',#154);
#156=CARTESIAN_POINT('',(14.675000000000004,5.391329E-015,3.999999999999999));
#157=DIRECTION('',(0.0,0.0,-1.0));
#158=DIRECTION('',(1.0,0.0,0.0));
#159=AXIS2_PLACEMENT_3D('',#156,#157,#158);
#160=CIRCLE('',#159,2.458500000000000);
#161=EDGE_CURVE('',#155,#155,#160,.T.);
#162=ORIENTED_EDGE('',*,*,#161,.F.);
#163=EDGE_LOOP('',(#162));
#164=FACE_BOUND('',#163,.T.);
#165=ADVANCED_FACE('',(#153,#164),#142,.F.);
#166=CARTESIAN_POINT('',(-14.675000000000001,0.0,3.000000000000000));
#167=DIRECTION('',(0.0,0.0,1.0));
#168=DIRECTION('',(-1.0,0.0,0.0));
#169=AXIS2_PLACEMENT_3D('',#166,#167,#168);
#170=CYLINDRICAL_SURFACE('',#169,4.0);
#171=CARTESIAN_POINT('',(-10.674999999999999,4.898425E-016,4.0));
#172=VERTEX_POINT('',#171);
#173=CARTESIAN_POINT('',(-14.675000000000001,0.0,4.0));
#174=DIRECTION('',(0.0,0.0,-1.0));
#175=DIRECTION('',(-1.0,0.0,0.0));
#176=AXIS2_PLACEMENT_3D('',#173,#174,#175);
#177=CIRCLE('',#176,4.0);
#178=EDGE_CURVE('',#172,#172,#177,.T.);
#179=ORIENTED_EDGE('',*,*,#178,.T.);
#180=EDGE_LOOP('',(#179));
#181=FACE_OUTER_BOUND('',#180,.T.);
#182=CARTESIAN_POINT('',(-10.674999999999999,4.898425E-016,3.000000000000000));
#183=VERTEX_POINT('',#182);
#184=CARTESIAN_POINT('',(-14.675000000000001,0.0,3.000000000000000));
#185=DIRECTION('',(0.0,0.0,-1.0));
#186=DIRECTION('',(-1.0,0.0,0.0));
#187=AXIS2_PLACEMENT_3D('',#184,#185,#186);
#188=CIRCLE('',#187,4.0);
#189=EDGE_CURVE('',#183,#183,#188,.T.);
#190=ORIENTED_EDGE('',*,*,#189,.F.);
#191=EDGE_LOOP('',(#190));
#192=FACE_BOUND('',#191,.T.);
#193=ADVANCED_FACE('',(#181,#192),#170,.T.);
#194=CARTESIAN_POINT('',(-14.675000000000001,0.0,4.0));
#195=DIRECTION('',(0.0,0.0,-1.0));
#196=DIRECTION('',(-1.0,0.0,0.0));
#197=AXIS2_PLACEMENT_3D('',#194,#195,#196);
#198=PLANE('',#197);
#199=ORIENTED_EDGE('',*,*,#178,.F.);
#200=EDGE_LOOP('',(#199));
#201=FACE_OUTER_BOUND('',#200,.T.);
#202=ORIENTED_EDGE('',*,*,#112,.T.);
#203=EDGE_LOOP('',(#202));
#204=FACE_BOUND('',#203,.T.);
#205=ADVANCED_FACE('',(#201,#204),#198,.F.);
#206=CARTESIAN_POINT('',(14.675000000000004,5.391329E-015,3.000000000000000));
#207=DIRECTION('',(0.0,0.0,1.0));
#208=DIRECTION('',(-1.0,0.0,0.0));
#209=AXIS2_PLACEMENT_3D('',#206,#207,#208);
#210=CYLINDRICAL_SURFACE('',#209,4.0);
#211=CARTESIAN_POINT('',(18.675000000000004,5.881172E-015,4.0));
#212=VERTEX_POINT('',#211);
#213=CARTESIAN_POINT('',(14.675000000000004,5.391329E-015,4.0));
#214=DIRECTION('',(0.0,0.0,-1.0));
#215=DIRECTION('',(-1.0,0.0,0.0));
#216=AXIS2_PLACEMENT_3D('',#213,#214,#215);
#217=CIRCLE('',#216,4.0);
#218=EDGE_CURVE('',#212,#212,#217,.T.);
#219=ORIENTED_EDGE('',*,*,#218,.T.);
#220=EDGE_LOOP('',(#219));
#221=FACE_OUTER_BOUND('',#220,.T.);
#222=CARTESIAN_POINT('',(18.675000000000004,5.881172E-015,3.000000000000000));
#223=VERTEX_POINT('',#222);
#224=CARTESIAN_POINT('',(14.675000000000004,5.391329E-015,3.000000000000000));
#225=DIRECTION('',(0.0,0.0,-1.0));
#226=DIRECTION('',(-1.0,0.0,0.0));
#227=AXIS2_PLACEMENT_3D('',#224,#225,#226);
#228=CIRCLE('',#227,4.0);
#229=EDGE_CURVE('',#223,#223,#228,.T.);
#230=ORIENTED_EDGE('',*,*,#229,.F.);
#231=EDGE_LOOP('',(#230));
#232=FACE_BOUND('',#231,.T.);
#233=ADVANCED_FACE('',(#221,#232),#210,.T.);
#234=CARTESIAN_POINT('',(14.675000000000004,5.391329E-015,4.0));
#235=DIRECTION('',(0.0,0.0,-1.0));
#236=DIRECTION('',(-1.0,0.0,0.0));
#237=AXIS2_PLACEMENT_3D('',#234,#235,#236);
#238=PLANE('',#237);
#239=ORIENTED_EDGE('',*,*,#218,.F.);
#240=EDGE_LOOP('',(#239));
#241=FACE_OUTER_BOUND('',#240,.T.);
#242=ORIENTED_EDGE('',*,*,#161,.T.);
#243=EDGE_LOOP('',(#242));
#244=FACE_BOUND('',#243,.T.);
#245=ADVANCED_FACE('',(#241,#244),#238,.F.);
#246=CARTESIAN_POINT('',(14.675000000000004,5.391329E-015,0.0));
#247=DIRECTION('',(0.0,0.0,1.0));
#248=DIRECTION('',(0.499999999999999,0.866025403784439,0.0));
#249=AXIS2_PLACEMENT_3D('',#246,#247,#248);
#250=CYLINDRICAL_SURFACE('',#249,5.500000000000001);
#251=CARTESIAN_POINT('',(14.675000000000002,5.500000000000002,3.000000000000000));
#252=VERTEX_POINT('',#251);
#253=CARTESIAN_POINT('',(11.925000000000006,-4.763139720814418,3.000000000000000));
#254=VERTEX_POINT('',#253);
#255=CARTESIAN_POINT('',(14.675000000000004,5.391329E-015,3.000000000000000));
#256=DIRECTION('',(0.0,0.0,-1.0));
#257=DIRECTION('',(0.499999999999999,0.866025403784439,0.0));
#258=AXIS2_PLACEMENT_3D('',#255,#256,#257);
#259=CIRCLE('',#258,5.500000000000001);
#260=EDGE_CURVE('',#252,#254,#259,.T.);
#261=ORIENTED_EDGE('',*,*,#260,.T.);
#262=CARTESIAN_POINT('',(11.925000000000006,-4.763139720814418,0.0));
#263=VERTEX_POINT('',#262);
#264=CARTESIAN_POINT('',(11.925000000000006,-4.763139720814418,0.0));
#265=DIRECTION('',(0.0,0.0,1.0));
#266=VECTOR('',#265,3.000000000000000);
#267=LINE('',#264,#266);
#268=EDGE_CURVE('',#263,#254,#267,.T.);
#269=ORIENTED_EDGE('',*,*,#268,.F.);
#270=CARTESIAN_POINT('',(14.675000000000002,5.500000000000002,0.0));
#271=VERTEX_POINT('',#270);
#272=CARTESIAN_POINT('',(14.675000000000004,5.391329E-015,0.0));
#273=DIRECTION('',(0.0,0.0,-1.0));
#274=DIRECTION('',(0.499999999999999,0.866025403784439,0.0));
#275=AXIS2_PLACEMENT_3D('',#272,#273,#274);
#276=CIRCLE('',#275,5.500000000000001);
#277=EDGE_CURVE('',#271,#263,#276,.T.);
#278=ORIENTED_EDGE('',*,*,#277,.F.);
#279=CARTESIAN_POINT('',(14.675000000000002,5.500000000000002,0.0));
#280=DIRECTION('',(0.0,0.0,1.0));
#281=VECTOR('',#280,3.000000000000000);
#282=LINE('',#279,#281);
#283=EDGE_CURVE('',#271,#252,#282,.T.);
#284=ORIENTED_EDGE('',*,*,#283,.T.);
#285=EDGE_LOOP('',(#261,#269,#278,#284));
#286=FACE_OUTER_BOUND('',#285,.T.);
#287=ADVANCED_FACE('',(#286),#250,.T.);
#288=CARTESIAN_POINT('',(0.0,-25.417845601073275,0.0));
#289=DIRECTION('',(0.0,0.0,1.0));
#290=DIRECTION('',(0.500000000000000,0.866025403784438,0.0));
#291=AXIS2_PLACEMENT_3D('',#288,#289,#290);
#292=CYLINDRICAL_SURFACE('',#291,23.850000000000001);
#293=CARTESIAN_POINT('',(-11.925000000000004,-4.763139720814418,3.000000000000000));
#294=VERTEX_POINT('',#293);
#295=CARTESIAN_POINT('',(0.0,-25.417845601073275,3.000000000000000));
#296=DIRECTION('',(0.0,0.0,1.000000000000000));
#297=DIRECTION('',(0.500000000000000,0.866025403784438,0.0));
#298=AXIS2_PLACEMENT_3D('',#295,#296,#297);
#299=CIRCLE('',#298,23.849999999999998);
#300=EDGE_CURVE('',#254,#294,#299,.T.);
#301=ORIENTED_EDGE('',*,*,#300,.T.);
#302=CARTESIAN_POINT('',(-11.925000000000004,-4.763139720814418,0.0));
#303=VERTEX_POINT('',#302);
#304=CARTESIAN_POINT('',(-11.925000000000004,-4.763139720814418,0.0));
#305=DIRECTION('',(0.0,0.0,1.0));
#306=VECTOR('',#305,3.000000000000000);
#307=LINE('',#304,#306);
#308=EDGE_CURVE('',#303,#294,#307,.T.);
#309=ORIENTED_EDGE('',*,*,#308,.F.);
#310=CARTESIAN_POINT('',(0.0,-25.417845601073275,0.0));
#311=DIRECTION('',(0.0,0.0,1.000000000000000));
#312=DIRECTION('',(0.500000000000000,0.866025403784438,0.0));
#313=AXIS2_PLACEMENT_3D('',#310,#311,#312);
#314=CIRCLE('',#313,23.849999999999998);
#315=EDGE_CURVE('',#263,#303,#314,.T.);
#316=ORIENTED_EDGE('',*,*,#315,.F.);
#317=ORIENTED_EDGE('',*,*,#268,.T.);
#318=EDGE_LOOP('',(#301,#309,#316,#317));
#319=FACE_OUTER_BOUND('',#318,.T.);
#320=ADVANCED_FACE('',(#319),#292,.F.);
#321=CARTESIAN_POINT('',(-14.675000000000001,0.0,0.0));
#322=DIRECTION('',(0.0,0.0,1.0));
#323=DIRECTION('',(0.0,-1.0,0.0));
#324=AXIS2_PLACEMENT_3D('',#321,#322,#323);
#325=CYLINDRICAL_SURFACE('',#324,5.500000000000002);
#326=CARTESIAN_POINT('',(-14.675000000000002,5.500000000000002,3.000000000000000));
#327=VERTEX_POINT('',#326);
#328=CARTESIAN_POINT('',(-14.675000000000001,0.0,3.000000000000000));
#329=DIRECTION('',(0.0,0.0,-1.0));
#330=DIRECTION('',(0.0,-1.0,0.0));
#331=AXIS2_PLACEMENT_3D('',#328,#329,#330);
#332=CIRCLE('',#331,5.500000000000002);
#333=EDGE_CURVE('',#294,#327,#332,.T.);
#334=ORIENTED_EDGE('',*,*,#333,.T.);
#335=CARTESIAN_POINT('',(-14.675000000000002,5.500000000000002,0.0));
#336=VERTEX_POINT('',#335);
#337=CARTESIAN_POINT('',(-14.675000000000002,5.500000000000002,0.0));
#338=DIRECTION('',(0.0,0.0,1.0));
#339=VECTOR('',#338,3.000000000000000);
#340=LINE('',#337,#339);
#341=EDGE_CURVE('',#336,#327,#340,.T.);
#342=ORIENTED_EDGE('',*,*,#341,.F.);
#343=CARTESIAN_POINT('',(-14.675000000000001,0.0,0.0));
#344=DIRECTION('',(0.0,0.0,-1.0));
#345=DIRECTION('',(0.0,-1.0,0.0));
#346=AXIS2_PLACEMENT_3D('',#343,#344,#345);
#347=CIRCLE('',#346,5.500000000000002);
#348=EDGE_CURVE('',#303,#336,#347,.T.);
#349=ORIENTED_EDGE('',*,*,#348,.F.);
#350=ORIENTED_EDGE('',*,*,#308,.T.);
#351=EDGE_LOOP('',(#334,#342,#349,#350));
#352=FACE_OUTER_BOUND('',#351,.T.);
#353=ADVANCED_FACE('',(#352),#325,.T.);
#354=CARTESIAN_POINT('',(-14.675000000000002,5.500000000000002,0.0));
#355=DIRECTION('',(0.0,1.0,0.0));
#356=DIRECTION('',(0.0,0.0,1.0));
#357=AXIS2_PLACEMENT_3D('',#354,#355,#356);
#358=PLANE('',#357);
#359=CARTESIAN_POINT('',(-14.675000000000002,5.500000000000002,3.000000000000000));
#360=DIRECTION('',(1.0,0.0,0.0));
#361=VECTOR('',#360,29.350000000000005);
#362=LINE('',#359,#361);
#363=EDGE_CURVE('',#327,#252,#362,.T.);
#364=ORIENTED_EDGE('',*,*,#363,.T.);
#365=ORIENTED_EDGE('',*,*,#283,.F.);
#366=CARTESIAN_POINT('',(-14.675000000000002,5.500000000000002,0.0));
#367=DIRECTION('',(1.0,0.0,0.0));
#368=VECTOR('',#367,29.350000000000005);
#369=LINE('',#366,#368);
#370=EDGE_CURVE('',#336,#271,#369,.T.);
#371=ORIENTED_EDGE('',*,*,#370,.F.);
#372=ORIENTED_EDGE('',*,*,#341,.T.);
#373=EDGE_LOOP('',(#364,#365,#371,#372));
#374=FACE_OUTER_BOUND('',#373,.T.);
#375=ADVANCED_FACE('',(#374),#358,.T.);
#376=CARTESIAN_POINT('',(5.551115E-016,0.679311594776959,3.000000000000000));
#377=DIRECTION('',(0.0,0.0,1.0));
#378=DIRECTION('',(1.0,0.0,0.0));
#379=AXIS2_PLACEMENT_3D('',#376,#377,#378);
#380=PLANE('',#379);
#381=ORIENTED_EDGE('',*,*,#260,.F.);
#382=ORIENTED_EDGE('',*,*,#363,.F.);
#383=ORIENTED_EDGE('',*,*,#333,.F.);
#384=ORIENTED_EDGE('',*,*,#300,.F.);
#385=EDGE_LOOP('',(#381,#382,#383,#384));
#386=FACE_OUTER_BOUND('',#385,.T.);
#387=ORIENTED_EDGE('',*,*,#189,.T.);
#388=EDGE_LOOP('',(#387));
#389=FACE_BOUND('',#388,.T.);
#390=ORIENTED_EDGE('',*,*,#229,.T.);
#391=EDGE_LOOP('',(#390));
#392=FACE_BOUND('',#391,.T.);
#393=ADVANCED_FACE('',(#386,#389,#392),#380,.T.);
#394=CARTESIAN_POINT('',(5.551115E-016,0.679311594776958,0.0));
#395=DIRECTION('',(0.0,0.0,1.0));
#396=DIRECTION('',(1.0,0.0,0.0));
#397=AXIS2_PLACEMENT_3D('',#394,#395,#396);
#398=PLANE('',#397);
#399=ORIENTED_EDGE('',*,*,#370,.T.);
#400=ORIENTED_EDGE('',*,*,#277,.T.);
#401=ORIENTED_EDGE('',*,*,#315,.T.);
#402=ORIENTED_EDGE('',*,*,#348,.T.);
#403=EDGE_LOOP('',(#399,#400,#401,#402));
#404=FACE_OUTER_BOUND('',#403,.T.);
#405=ORIENTED_EDGE('',*,*,#101,.T.);
#406=EDGE_LOOP('',(#405));
#407=FACE_BOUND('',#406,.T.);
#408=ORIENTED_EDGE('',*,*,#150,.T.);
#409=EDGE_LOOP('',(#408));
#410=FACE_BOUND('',#409,.T.);
#411=ADVANCED_FACE('',(#404,#407,#410),#398,.F.);
#412=CLOSED_SHELL('',(#116,#165,#193,#205,#233,#245,#287,#320,#353,#375,#393,#411));
#413=MANIFOLD_SOLID_BREP('',#412);
#414=COLOUR_RGB('Metall - Stahl',0.639216005802155,0.639216005802155,0.686275005340576);
#415=FILL_AREA_STYLE_COLOUR('Metall - Stahl',#414);
#416=FILL_AREA_STYLE('Metall - Stahl',(#415));
#417=SURFACE_STYLE_FILL_AREA(#416);
#418=SURFACE_SIDE_STYLE('Metall - Stahl',(#417));
#419=SURFACE_STYLE_USAGE(.BOTH.,#418);
#420=PRESENTATION_STYLE_ASSIGNMENT((#419));
#421=STYLED_ITEM('',(#420),#413);
#422=MECHANICAL_DESIGN_GEOMETRIC_PRESENTATION_REPRESENTATION('',(#421),#36);
#423=ADVANCED_BREP_SHAPE_REPRESENTATION('ABSR',(#413),#36);
#424=SHAPE_REPRESENTATION_RELATIONSHIP('SRR','None',#423,#41);
ENDSEC;
END-ISO-10303-21;
