ISO-10303-21;
HEADER;
/****************************************************************
 * Generated by software with PDE/Lib inside                    *
 * PDElib Version v51a, created Thu 12/14/2006                  *
 * International Technegroup Inc. (www.iti-oh.com)              *
 ****************************************************************/
FILE_DESCRIPTION((''),'2;1');
FILE_NAME('J:\\Downloadzeichnungen\\Sven\\Neuer Ordner\\PN150\\PN150.stp','2009-03-12T16:03:55',('hasers'),(''),'Autodesk Inventor 2008','Autodesk Inventor 2008','');
FILE_SCHEMA(('AUTOMOTIVE_DESIGN { 1 0 10303 214 1 1 1 1 }'));
ENDSEC;
DATA;
#5=APPLICATION_CONTEXT('automotive design');
#6=APPLICATION_PROTOCOL_DEFINITION('International Standard','automotive_design',2001,#5);
#7=PRODUCT_CONTEXT('',#5,'mechanical');
#8=PRODUCT('PN150','PN150',$,(#7));
#9=PRODUCT_RELATED_PRODUCT_CATEGORY('part',$,(#8));
#10=PRODUCT_DEFINITION_FORMATION('',$,#8);
#11=PRODUCT_DEFINITION_CONTEXT('part definition',#5,'design');
#12=PRODUCT_DEFINITION('',$,#10,#11);
#18=(NAMED_UNIT(*)PLANE_ANGLE_UNIT()SI_UNIT($,.RADIAN.));
#19=DIMENSIONAL_EXPONENTS(0.0,0.0,0.0,0.0,0.0,0.0,0.0);
#20=PLANE_ANGLE_MEASURE_WITH_UNIT(PLANE_ANGLE_MEASURE(0.017453292500000),#18);
#24=(CONVERSION_BASED_UNIT('DEGREE',#20)NAMED_UNIT(#19)PLANE_ANGLE_UNIT());
#28=(NAMED_UNIT(*)SI_UNIT($,.STERADIAN.)SOLID_ANGLE_UNIT());
#32=(LENGTH_UNIT()NAMED_UNIT(*)SI_UNIT(.MILLI.,.METRE.));
#34=UNCERTAINTY_MEASURE_WITH_UNIT(LENGTH_MEASURE(0.010000000000000),#32,'DISTANCE_ACCURACY_VALUE','');
#36=(GEOMETRIC_REPRESENTATION_CONTEXT(3)GLOBAL_UNCERTAINTY_ASSIGNED_CONTEXT((#34))GLOBAL_UNIT_ASSIGNED_CONTEXT((#24,#28,#32))REPRESENTATION_CONTEXT('None','None'));
#37=AXIS2_PLACEMENT_3D('',#38,#39,#40);
#38=CARTESIAN_POINT('',(0.0,0.0,0.0));
#39=DIRECTION('',(0.0,0.0,1.0));
#40=DIRECTION('',(1.0,0.0,0.0));
#41=SHAPE_REPRESENTATION('',(#37),#36);
#42=PRODUCT_DEFINITION_SHAPE('','',#12);
#43=SHAPE_DEFINITION_REPRESENTATION(#42,#41);
#49=(NAMED_UNIT(*)PLANE_ANGLE_UNIT()SI_UNIT($,.RADIAN.));
#50=DIMENSIONAL_EXPONENTS(0.0,0.0,0.0,0.0,0.0,0.0,0.0);
#51=PLANE_ANGLE_MEASURE_WITH_UNIT(PLANE_ANGLE_MEASURE(0.017453292500000),#49);
#55=(CONVERSION_BASED_UNIT('DEGREE',#51)NAMED_UNIT(#50)PLANE_ANGLE_UNIT());
#59=(NAMED_UNIT(*)SI_UNIT($,.STERADIAN.)SOLID_ANGLE_UNIT());
#63=(LENGTH_UNIT()NAMED_UNIT(*)SI_UNIT(.MILLI.,.METRE.));
#65=UNCERTAINTY_MEASURE_WITH_UNIT(LENGTH_MEASURE(0.000001000000000),#63,'DISTANCE_ACCURACY_VALUE','');
#67=(GEOMETRIC_REPRESENTATION_CONTEXT(3)GLOBAL_UNCERTAINTY_ASSIGNED_CONTEXT((#65))GLOBAL_UNIT_ASSIGNED_CONTEXT((#55,#59,#63))REPRESENTATION_CONTEXT('','3D'));
#68=CARTESIAN_POINT('',(20.157499999999999,-7.347638E-016,3.500000000000000));
#69=CARTESIAN_POINT('',(20.157499999999999,-7.347638E-016,3.000000000000000));
#70=CARTESIAN_POINT('',(19.657499999999999,-6.735335E-016,3.000000000000000));
#71=CARTESIAN_POINT('',(19.157499999999999,-6.123032E-016,3.000000000000000));
#72=CARTESIAN_POINT('',(19.157499999999999,-6.123032E-016,3.500000000000000));
#73=CARTESIAN_POINT('',(20.157499999999999,-5.999999999999998,3.500000000000000));
#74=CARTESIAN_POINT('',(20.157499999999999,-5.999999999999998,3.000000000000000));
#75=CARTESIAN_POINT('',(19.657499999999999,-5.499999999999998,3.0));
#76=CARTESIAN_POINT('',(19.157499999999999,-4.999999999999998,3.000000000000000));
#77=CARTESIAN_POINT('',(19.157499999999999,-4.999999999999998,3.500000000000000));
#78=CARTESIAN_POINT('',(14.157500000000001,-5.999999999999998,3.500000000000000));
#79=CARTESIAN_POINT('',(14.157500000000001,-5.999999999999998,3.000000000000000));
#80=CARTESIAN_POINT('',(14.157500000000001,-5.499999999999998,3.000000000000000));
#81=CARTESIAN_POINT('',(14.157500000000001,-4.999999999999998,3.000000000000000));
#82=CARTESIAN_POINT('',(14.157500000000001,-4.999999999999998,3.500000000000000));
#83=CARTESIAN_POINT('',(8.157500000000002,-5.999999999999996,3.500000000000000));
#84=CARTESIAN_POINT('',(8.157500000000002,-5.999999999999996,3.000000000000000));
#85=CARTESIAN_POINT('',(8.657500000000002,-5.499999999999996,3.0));
#86=CARTESIAN_POINT('',(9.157500000000002,-4.999999999999996,3.000000000000000));
#87=CARTESIAN_POINT('',(9.157500000000002,-4.999999999999996,3.500000000000000));
#88=CARTESIAN_POINT('',(8.157500000000002,7.347638E-016,3.500000000000000));
#89=CARTESIAN_POINT('',(8.157500000000002,7.347638E-016,3.000000000000000));
#90=CARTESIAN_POINT('',(8.657500000000002,6.735335E-016,3.000000000000000));
#91=CARTESIAN_POINT('',(9.157500000000002,6.123032E-016,3.000000000000000));
#92=CARTESIAN_POINT('',(9.157500000000002,6.123032E-016,3.500000000000000));
#93=CARTESIAN_POINT('',(8.157500000000002,5.999999999999998,3.500000000000000));
#94=CARTESIAN_POINT('',(8.157500000000002,5.999999999999998,3.000000000000000));
#95=CARTESIAN_POINT('',(8.657500000000002,5.499999999999998,3.0));
#96=CARTESIAN_POINT('',(9.157500000000002,4.999999999999998,3.000000000000000));
#97=CARTESIAN_POINT('',(9.157500000000002,4.999999999999998,3.500000000000000));
#98=CARTESIAN_POINT('',(14.157500000000001,5.999999999999998,3.500000000000000));
#99=CARTESIAN_POINT('',(14.157500000000001,5.999999999999998,3.000000000000000));
#100=CARTESIAN_POINT('',(14.157500000000001,5.499999999999998,3.000000000000000));
#101=CARTESIAN_POINT('',(14.157500000000001,4.999999999999998,3.000000000000000));
#102=CARTESIAN_POINT('',(14.157500000000001,4.999999999999998,3.500000000000000));
#103=CARTESIAN_POINT('',(20.157499999999999,5.999999999999996,3.500000000000000));
#104=CARTESIAN_POINT('',(20.157499999999999,5.999999999999996,3.000000000000000));
#105=CARTESIAN_POINT('',(19.657499999999999,5.499999999999996,3.0));
#106=CARTESIAN_POINT('',(19.157499999999999,4.999999999999996,3.000000000000000));
#107=CARTESIAN_POINT('',(19.157499999999999,4.999999999999996,3.500000000000000));
#108=CARTESIAN_POINT('',(20.157499999999999,-7.347638E-016,3.500000000000000));
#109=CARTESIAN_POINT('',(20.157499999999999,-7.347638E-016,3.000000000000000));
#110=CARTESIAN_POINT('',(19.657499999999999,-6.735335E-016,3.000000000000000));
#111=CARTESIAN_POINT('',(19.157499999999999,-6.123032E-016,3.000000000000000));
#112=CARTESIAN_POINT('',(19.157499999999999,-6.123032E-016,3.500000000000000));
#120=(BOUNDED_SURFACE()B_SPLINE_SURFACE(2,2,((#68,#73,#78,#83,#88,#93,#98,#103,#108),(#69,#74,#79,#84,#89,#94,#99,#104,#109),(#70,#75,#80,#85,#90,#95,#100,#105,#110),(#71,#76,#81,#86,#91,#96,#101,#106,#111),(#72,#77,#82,#87,#92,#97,#102,#107,#112)),.UNSPECIFIED.,.F.,.T.,.U.)B_SPLINE_SURFACE_WITH_KNOTS((3,2,3),(3,2,2,2,3),(0.0,1.570796326794897,3.141592653589793),(0.0,1.570796326794897,3.141592653589793,4.712388980384690,6.283185307179586),.UNSPECIFIED.)GEOMETRIC_REPRESENTATION_ITEM()RATIONAL_B_SPLINE_SURFACE(((1.0,0.707106781186548,1.0,0.707106781186548,1.0,0.707106781186548,1.0,0.707106781186548,1.0),(0.707106781186542,0.499999999999996,0.707106781186542,0.499999999999996,0.707106781186542,0.499999999999996,0.707106781186542,0.499999999999996,0.707106781186542),(1.0,0.707106781186548,1.0,0.707106781186548,1.0,0.707106781186548,1.0,0.707106781186548,1.0),(0.707106781186545,0.499999999999998,0.707106781186545,0.499999999999998,0.707106781186545,0.499999999999998,0.707106781186545,0.499999999999998,0.707106781186545),(1.0,0.707106781186548,1.0,0.707106781186548,1.0,0.707106781186548,1.0,0.707106781186548,1.0)))REPRESENTATION_ITEM('')SURFACE());
#121=CARTESIAN_POINT('',(19.157499999999999,-6.123032E-016,3.500000000000000));
#122=VERTEX_POINT('',#121);
#123=CARTESIAN_POINT('',(14.157500000000001,0.0,3.500000000000000));
#124=DIRECTION('',(0.0,0.0,-1.0));
#125=DIRECTION('',(-1.0,0.0,0.0));
#126=AXIS2_PLACEMENT_3D('',#123,#124,#125);
#127=CIRCLE('',#126,5.0);
#128=EDGE_CURVE('',#122,#122,#127,.T.);
#129=ORIENTED_EDGE('',*,*,#128,.T.);
#130=EDGE_LOOP('',(#129));
#131=FACE_OUTER_BOUND('',#130,.T.);
#132=CARTESIAN_POINT('',(19.657500000000002,6.735335E-016,3.000000000000000));
#133=VERTEX_POINT('',#132);
#134=CARTESIAN_POINT('',(14.157500000000001,0.0,3.000000000000000));
#135=DIRECTION('',(0.0,0.0,1.0));
#136=DIRECTION('',(-1.0,0.0,0.0));
#137=AXIS2_PLACEMENT_3D('',#134,#135,#136);
#138=CIRCLE('',#137,5.500000000000000);
#139=EDGE_CURVE('',#133,#133,#138,.T.);
#140=ORIENTED_EDGE('',*,*,#139,.T.);
#141=EDGE_LOOP('',(#140));
#142=FACE_BOUND('',#141,.T.);
#143=ADVANCED_FACE('',(#131,#142),#120,.T.);
#144=CARTESIAN_POINT('',(6.106227E-015,2.775558E-016,3.000000000000000));
#145=DIRECTION('',(0.0,0.0,1.0));
#146=DIRECTION('',(1.0,0.0,0.0));
#147=AXIS2_PLACEMENT_3D('',#144,#145,#146);
#148=PLANE('',#147);
#149=CARTESIAN_POINT('',(-14.157500000000001,6.500000000000000,3.000000000000000));
#150=VERTEX_POINT('',#149);
#151=CARTESIAN_POINT('',(14.157500000000001,6.500000000000000,3.000000000000000));
#152=VERTEX_POINT('',#151);
#153=CARTESIAN_POINT('',(-14.157500000000001,6.500000000000000,3.000000000000000));
#154=DIRECTION('',(1.0,0.0,0.0));
#155=VECTOR('',#154,28.315000000000001);
#156=LINE('',#153,#155);
#157=EDGE_CURVE('',#150,#152,#156,.T.);
#158=ORIENTED_EDGE('',*,*,#157,.F.);
#159=CARTESIAN_POINT('',(-14.157500000000001,-6.499999999999999,3.000000000000000));
#160=VERTEX_POINT('',#159);
#161=CARTESIAN_POINT('',(-14.157500000000001,0.0,3.000000000000000));
#162=DIRECTION('',(0.0,0.0,-1.0));
#163=DIRECTION('',(0.0,1.0,0.0));
#164=AXIS2_PLACEMENT_3D('',#161,#162,#163);
#165=CIRCLE('',#164,6.499999999999994);
#166=EDGE_CURVE('',#160,#150,#165,.T.);
#167=ORIENTED_EDGE('',*,*,#166,.F.);
#168=CARTESIAN_POINT('',(14.157500000000001,-6.499999999999999,3.000000000000000));
#169=VERTEX_POINT('',#168);
#170=CARTESIAN_POINT('',(14.157500000000001,-6.499999999999999,3.000000000000000));
#171=DIRECTION('',(-1.0,0.0,0.0));
#172=VECTOR('',#171,28.315000000000001);
#173=LINE('',#170,#172);
#174=EDGE_CURVE('',#169,#160,#173,.T.);
#175=ORIENTED_EDGE('',*,*,#174,.F.);
#176=CARTESIAN_POINT('',(14.157500000000001,0.0,3.000000000000000));
#177=DIRECTION('',(0.0,0.0,-1.0));
#178=DIRECTION('',(0.0,-1.0,0.0));
#179=AXIS2_PLACEMENT_3D('',#176,#177,#178);
#180=CIRCLE('',#179,6.500000000000002);
#181=EDGE_CURVE('',#152,#169,#180,.T.);
#182=ORIENTED_EDGE('',*,*,#181,.F.);
#183=EDGE_LOOP('',(#158,#167,#175,#182));
#184=FACE_OUTER_BOUND('',#183,.T.);
#185=CARTESIAN_POINT('',(-8.657500000000001,6.735335E-016,3.000000000000000));
#186=VERTEX_POINT('',#185);
#187=CARTESIAN_POINT('',(-14.157500000000001,0.0,3.000000000000000));
#188=DIRECTION('',(0.0,0.0,1.0));
#189=DIRECTION('',(-1.0,0.0,0.0));
#190=AXIS2_PLACEMENT_3D('',#187,#188,#189);
#191=CIRCLE('',#190,5.500000000000000);
#192=EDGE_CURVE('',#186,#186,#191,.T.);
#193=ORIENTED_EDGE('',*,*,#192,.F.);
#194=EDGE_LOOP('',(#193));
#195=FACE_BOUND('',#194,.T.);
#196=ORIENTED_EDGE('',*,*,#139,.F.);
#197=EDGE_LOOP('',(#196));
#198=FACE_BOUND('',#197,.T.);
#199=ADVANCED_FACE('',(#184,#195,#198),#148,.T.);
#200=CARTESIAN_POINT('',(14.157500000000001,0.0,3.000000000000000));
#201=DIRECTION('',(0.0,0.0,1.0));
#202=DIRECTION('',(-1.0,0.0,0.0));
#203=AXIS2_PLACEMENT_3D('',#200,#201,#202);
#204=CYLINDRICAL_SURFACE('',#203,5.0);
#205=CARTESIAN_POINT('',(19.157499999999999,6.123032E-016,6.000000000000001));
#206=VERTEX_POINT('',#205);
#207=CARTESIAN_POINT('',(14.157500000000001,0.0,6.000000000000001));
#208=DIRECTION('',(0.0,0.0,-1.0));
#209=DIRECTION('',(-1.0,0.0,0.0));
#210=AXIS2_PLACEMENT_3D('',#207,#208,#209);
#211=CIRCLE('',#210,5.0);
#212=EDGE_CURVE('',#206,#206,#211,.T.);
#213=ORIENTED_EDGE('',*,*,#212,.T.);
#214=EDGE_LOOP('',(#213));
#215=FACE_OUTER_BOUND('',#214,.T.);
#216=ORIENTED_EDGE('',*,*,#128,.F.);
#217=EDGE_LOOP('',(#216));
#218=FACE_BOUND('',#217,.T.);
#219=ADVANCED_FACE('',(#215,#218),#204,.T.);
#220=CARTESIAN_POINT('',(-8.157500000000001,-7.347638E-016,3.500000000000000));
#221=CARTESIAN_POINT('',(-8.157500000000001,-7.347638E-016,3.000000000000000));
#222=CARTESIAN_POINT('',(-8.657500000000001,-6.735335E-016,3.000000000000000));
#223=CARTESIAN_POINT('',(-9.157500000000001,-6.123032E-016,3.000000000000000));
#224=CARTESIAN_POINT('',(-9.157500000000001,-6.123032E-016,3.500000000000000));
#225=CARTESIAN_POINT('',(-8.157500000000002,-5.999999999999999,3.500000000000000));
#226=CARTESIAN_POINT('',(-8.157500000000002,-5.999999999999999,3.000000000000000));
#227=CARTESIAN_POINT('',(-8.657500000000002,-5.500000000000000,3.0));
#228=CARTESIAN_POINT('',(-9.157500000000002,-5.0,3.000000000000000));
#229=CARTESIAN_POINT('',(-9.157500000000002,-5.0,3.500000000000000));
#230=CARTESIAN_POINT('',(-14.157500000000001,-6.0,3.500000000000000));
#231=CARTESIAN_POINT('',(-14.157500000000001,-6.0,3.000000000000000));
#232=CARTESIAN_POINT('',(-14.157500000000001,-5.500000000000000,3.000000000000000));
#233=CARTESIAN_POINT('',(-14.157500000000001,-5.0,3.000000000000000));
#234=CARTESIAN_POINT('',(-14.157500000000001,-5.0,3.500000000000000));
#235=CARTESIAN_POINT('',(-20.157499999999999,-5.999999999999998,3.500000000000000));
#236=CARTESIAN_POINT('',(-20.157499999999999,-5.999999999999997,3.000000000000000));
#237=CARTESIAN_POINT('',(-19.657499999999999,-5.499999999999998,3.0));
#238=CARTESIAN_POINT('',(-19.157499999999999,-4.999999999999998,3.000000000000000));
#239=CARTESIAN_POINT('',(-19.157499999999999,-4.999999999999998,3.500000000000000));
#240=CARTESIAN_POINT('',(-20.157499999999999,7.347638E-016,3.500000000000000));
#241=CARTESIAN_POINT('',(-20.157499999999999,7.347638E-016,3.000000000000000));
#242=CARTESIAN_POINT('',(-19.657499999999999,6.735335E-016,3.000000000000000));
#243=CARTESIAN_POINT('',(-19.157499999999999,6.123032E-016,3.000000000000000));
#244=CARTESIAN_POINT('',(-19.157499999999999,6.123032E-016,3.500000000000000));
#245=CARTESIAN_POINT('',(-20.157499999999999,5.999999999999999,3.500000000000000));
#246=CARTESIAN_POINT('',(-20.157499999999999,5.999999999999999,3.000000000000000));
#247=CARTESIAN_POINT('',(-19.657499999999999,5.500000000000000,3.0));
#248=CARTESIAN_POINT('',(-19.157499999999999,5.0,3.000000000000000));
#249=CARTESIAN_POINT('',(-19.157499999999999,5.0,3.500000000000000));
#250=CARTESIAN_POINT('',(-14.157500000000001,6.0,3.500000000000000));
#251=CARTESIAN_POINT('',(-14.157500000000001,6.0,3.000000000000000));
#252=CARTESIAN_POINT('',(-14.157500000000001,5.500000000000000,3.000000000000000));
#253=CARTESIAN_POINT('',(-14.157500000000001,5.0,3.000000000000000));
#254=CARTESIAN_POINT('',(-14.157500000000001,5.0,3.500000000000000));
#255=CARTESIAN_POINT('',(-8.157500000000002,5.999999999999998,3.500000000000000));
#256=CARTESIAN_POINT('',(-8.157500000000002,5.999999999999997,3.000000000000000));
#257=CARTESIAN_POINT('',(-8.657500000000002,5.499999999999998,3.0));
#258=CARTESIAN_POINT('',(-9.157500000000002,4.999999999999998,3.000000000000000));
#259=CARTESIAN_POINT('',(-9.157500000000002,4.999999999999998,3.500000000000000));
#260=CARTESIAN_POINT('',(-8.157500000000001,-7.347638E-016,3.500000000000000));
#261=CARTESIAN_POINT('',(-8.157500000000001,-7.347638E-016,3.000000000000000));
#262=CARTESIAN_POINT('',(-8.657500000000001,-6.735335E-016,3.000000000000000));
#263=CARTESIAN_POINT('',(-9.157500000000001,-6.123032E-016,3.000000000000000));
#264=CARTESIAN_POINT('',(-9.157500000000001,-6.123032E-016,3.500000000000000));
#272=(BOUNDED_SURFACE()B_SPLINE_SURFACE(2,2,((#220,#225,#230,#235,#240,#245,#250,#255,#260),(#221,#226,#231,#236,#241,#246,#251,#256,#261),(#222,#227,#232,#237,#242,#247,#252,#257,#262),(#223,#228,#233,#238,#243,#248,#253,#258,#263),(#224,#229,#234,#239,#244,#249,#254,#259,#264)),.UNSPECIFIED.,.F.,.T.,.U.)B_SPLINE_SURFACE_WITH_KNOTS((3,2,3),(3,2,2,2,3),(0.0,1.570796326794897,3.141592653589793),(0.0,1.570796326794897,3.141592653589793,4.712388980384690,6.283185307179586),.UNSPECIFIED.)GEOMETRIC_REPRESENTATION_ITEM()RATIONAL_B_SPLINE_SURFACE(((1.0,0.707106781186548,1.0,0.707106781186548,1.0,0.707106781186548,1.0,0.707106781186548,1.0),(0.707106781186542,0.499999999999996,0.707106781186542,0.499999999999996,0.707106781186542,0.499999999999996,0.707106781186542,0.499999999999996,0.707106781186542),(1.0,0.707106781186548,1.0,0.707106781186548,1.0,0.707106781186548,1.0,0.707106781186548,1.0),(0.707106781186545,0.499999999999998,0.707106781186545,0.499999999999998,0.707106781186545,0.499999999999998,0.707106781186545,0.499999999999998,0.707106781186545),(1.0,0.707106781186548,1.0,0.707106781186548,1.0,0.707106781186548,1.0,0.707106781186548,1.0)))REPRESENTATION_ITEM('')SURFACE());
#273=CARTESIAN_POINT('',(-9.157500000000001,-6.123032E-016,3.500000000000000));
#274=VERTEX_POINT('',#273);
#275=CARTESIAN_POINT('',(-14.157500000000001,0.0,3.500000000000000));
#276=DIRECTION('',(0.0,0.0,-1.0));
#277=DIRECTION('',(-1.0,0.0,0.0));
#278=AXIS2_PLACEMENT_3D('',#275,#276,#277);
#279=CIRCLE('',#278,5.0);
#280=EDGE_CURVE('',#274,#274,#279,.T.);
#281=ORIENTED_EDGE('',*,*,#280,.T.);
#282=EDGE_LOOP('',(#281));
#283=FACE_OUTER_BOUND('',#282,.T.);
#284=ORIENTED_EDGE('',*,*,#192,.T.);
#285=EDGE_LOOP('',(#284));
#286=FACE_BOUND('',#285,.T.);
#287=ADVANCED_FACE('',(#283,#286),#272,.T.);
#288=CARTESIAN_POINT('',(-14.157500000000001,0.0,3.000000000000000));
#289=DIRECTION('',(0.0,0.0,1.0));
#290=DIRECTION('',(-1.0,0.0,0.0));
#291=AXIS2_PLACEMENT_3D('',#288,#289,#290);
#292=CYLINDRICAL_SURFACE('',#291,5.0);
#293=CARTESIAN_POINT('',(-9.157500000000001,6.123032E-016,6.000000000000001));
#294=VERTEX_POINT('',#293);
#295=CARTESIAN_POINT('',(-14.157500000000001,0.0,6.000000000000001));
#296=DIRECTION('',(0.0,0.0,-1.0));
#297=DIRECTION('',(-1.0,0.0,0.0));
#298=AXIS2_PLACEMENT_3D('',#295,#296,#297);
#299=CIRCLE('',#298,5.0);
#300=EDGE_CURVE('',#294,#294,#299,.T.);
#301=ORIENTED_EDGE('',*,*,#300,.T.);
#302=EDGE_LOOP('',(#301));
#303=FACE_OUTER_BOUND('',#302,.T.);
#304=ORIENTED_EDGE('',*,*,#280,.F.);
#305=EDGE_LOOP('',(#304));
#306=FACE_BOUND('',#305,.T.);
#307=ADVANCED_FACE('',(#303,#306),#292,.T.);
#308=CARTESIAN_POINT('',(-17.481000000000002,-4.069979E-016,6.0));
#309=CARTESIAN_POINT('',(-17.481000000000002,-4.069979E-016,0.0));
#310=CARTESIAN_POINT('',(-17.481000000000002,-3.323500000000001,6.0));
#311=CARTESIAN_POINT('',(-17.481000000000002,-3.323500000000001,0.0));
#312=CARTESIAN_POINT('',(-14.157500000000001,-3.323500000000001,6.0));
#313=CARTESIAN_POINT('',(-14.157500000000001,-3.323500000000001,0.0));
#314=CARTESIAN_POINT('',(-10.834000000000000,-3.323500000000000,6.0));
#315=CARTESIAN_POINT('',(-10.834000000000000,-3.323500000000000,0.0));
#316=CARTESIAN_POINT('',(-10.834000000000000,4.069979E-016,6.0));
#317=CARTESIAN_POINT('',(-10.834000000000000,4.069979E-016,0.0));
#318=CARTESIAN_POINT('',(-10.834000000000000,3.323500000000001,6.0));
#319=CARTESIAN_POINT('',(-10.834000000000000,3.323500000000001,0.0));
#320=CARTESIAN_POINT('',(-14.157500000000001,3.323500000000001,6.0));
#321=CARTESIAN_POINT('',(-14.157500000000001,3.323500000000001,0.0));
#322=CARTESIAN_POINT('',(-17.481000000000002,3.323500000000000,6.0));
#323=CARTESIAN_POINT('',(-17.481000000000002,3.323500000000000,0.0));
#324=CARTESIAN_POINT('',(-17.481000000000002,-4.069979E-016,6.0));
#325=CARTESIAN_POINT('',(-17.481000000000002,-4.069979E-016,0.0));
#333=(BOUNDED_SURFACE()B_SPLINE_SURFACE(1,2,((#308,#310,#312,#314,#316,#318,#320,#322,#324),(#309,#311,#313,#315,#317,#319,#321,#323,#325)),.UNSPECIFIED.,.F.,.T.,.U.)B_SPLINE_SURFACE_WITH_KNOTS((2,2),(3,2,2,2,3),(-13.156495537046405,-11.351169826199406),(0.0,5.220541592102839,10.441083184205677,15.661624776308516,20.882166368411355),.UNSPECIFIED.)GEOMETRIC_REPRESENTATION_ITEM()RATIONAL_B_SPLINE_SURFACE(((1.0,0.707106781186548,1.0,0.707106781186548,1.0,0.707106781186548,1.0,0.707106781186548,1.0),(1.0,0.707106781186548,1.0,0.707106781186548,1.0,0.707106781186548,1.0,0.707106781186548,1.0)))REPRESENTATION_ITEM('')SURFACE());
#334=CARTESIAN_POINT('',(-17.481000000000002,-4.069979E-016,0.0));
#335=VERTEX_POINT('',#334);
#336=CARTESIAN_POINT('',(-14.157500000000001,0.0,0.0));
#337=DIRECTION('',(0.0,0.0,1.0));
#338=DIRECTION('',(1.0,0.0,0.0));
#339=AXIS2_PLACEMENT_3D('',#336,#337,#338);
#340=CIRCLE('',#339,3.323500000000000);
#341=EDGE_CURVE('',#335,#335,#340,.T.);
#342=ORIENTED_EDGE('',*,*,#341,.F.);
#343=EDGE_LOOP('',(#342));
#344=FACE_OUTER_BOUND('',#343,.T.);
#345=CARTESIAN_POINT('',(-10.834000000000001,0.0,6.000000000000001));
#346=VERTEX_POINT('',#345);
#347=CARTESIAN_POINT('',(-14.157500000000001,0.0,6.000000000000001));
#348=DIRECTION('',(0.0,0.0,-1.0));
#349=DIRECTION('',(1.0,0.0,0.0));
#350=AXIS2_PLACEMENT_3D('',#347,#348,#349);
#351=CIRCLE('',#350,3.323500000000000);
#352=EDGE_CURVE('',#346,#346,#351,.T.);
#353=ORIENTED_EDGE('',*,*,#352,.F.);
#354=EDGE_LOOP('',(#353));
#355=FACE_BOUND('',#354,.T.);
#356=ADVANCED_FACE('',(#344,#355),#333,.F.);
#357=CARTESIAN_POINT('',(10.834000000000000,-4.069979E-016,6.0));
#358=CARTESIAN_POINT('',(10.834000000000000,-4.069979E-016,0.0));
#359=CARTESIAN_POINT('',(10.834000000000000,-3.323500000000001,6.0));
#360=CARTESIAN_POINT('',(10.834000000000000,-3.323500000000001,0.0));
#361=CARTESIAN_POINT('',(14.157500000000001,-3.323500000000001,6.0));
#362=CARTESIAN_POINT('',(14.157500000000001,-3.323500000000001,0.0));
#363=CARTESIAN_POINT('',(17.481000000000002,-3.323500000000000,6.0));
#364=CARTESIAN_POINT('',(17.481000000000002,-3.323500000000000,0.0));
#365=CARTESIAN_POINT('',(17.481000000000002,4.069979E-016,6.0));
#366=CARTESIAN_POINT('',(17.481000000000002,4.069979E-016,0.0));
#367=CARTESIAN_POINT('',(17.481000000000002,3.323500000000001,6.0));
#368=CARTESIAN_POINT('',(17.481000000000002,3.323500000000001,0.0));
#369=CARTESIAN_POINT('',(14.157500000000001,3.323500000000001,6.0));
#370=CARTESIAN_POINT('',(14.157500000000001,3.323500000000001,0.0));
#371=CARTESIAN_POINT('',(10.834000000000000,3.323500000000000,6.0));
#372=CARTESIAN_POINT('',(10.834000000000000,3.323500000000000,0.0));
#373=CARTESIAN_POINT('',(10.834000000000000,-4.069979E-016,6.0));
#374=CARTESIAN_POINT('',(10.834000000000000,-4.069979E-016,0.0));
#382=(BOUNDED_SURFACE()B_SPLINE_SURFACE(1,2,((#357,#359,#361,#363,#365,#367,#369,#371,#373),(#358,#360,#362,#364,#366,#368,#370,#372,#374)),.UNSPECIFIED.,.F.,.T.,.U.)B_SPLINE_SURFACE_WITH_KNOTS((2,2),(3,2,2,2,3),(-13.156495537046405,-11.351169826199406),(0.0,5.220541592102839,10.441083184205677,15.661624776308516,20.882166368411355),.UNSPECIFIED.)GEOMETRIC_REPRESENTATION_ITEM()RATIONAL_B_SPLINE_SURFACE(((1.0,0.707106781186548,1.0,0.707106781186548,1.0,0.707106781186548,1.0,0.707106781186548,1.0),(1.0,0.707106781186548,1.0,0.707106781186548,1.0,0.707106781186548,1.0,0.707106781186548,1.0)))REPRESENTATION_ITEM('')SURFACE());
#383=CARTESIAN_POINT('',(10.834000000000001,-4.069979E-016,0.0));
#384=VERTEX_POINT('',#383);
#385=CARTESIAN_POINT('',(14.157500000000001,0.0,0.0));
#386=DIRECTION('',(0.0,0.0,1.0));
#387=DIRECTION('',(1.0,0.0,0.0));
#388=AXIS2_PLACEMENT_3D('',#385,#386,#387);
#389=CIRCLE('',#388,3.323500000000000);
#390=EDGE_CURVE('',#384,#384,#389,.T.);
#391=ORIENTED_EDGE('',*,*,#390,.F.);
#392=EDGE_LOOP('',(#391));
#393=FACE_OUTER_BOUND('',#392,.T.);
#394=CARTESIAN_POINT('',(17.481000000000002,0.0,6.000000000000001));
#395=VERTEX_POINT('',#394);
#396=CARTESIAN_POINT('',(14.157500000000001,0.0,6.000000000000001));
#397=DIRECTION('',(0.0,0.0,-1.0));
#398=DIRECTION('',(1.0,0.0,0.0));
#399=AXIS2_PLACEMENT_3D('',#396,#397,#398);
#400=CIRCLE('',#399,3.323500000000000);
#401=EDGE_CURVE('',#395,#395,#400,.T.);
#402=ORIENTED_EDGE('',*,*,#401,.F.);
#403=EDGE_LOOP('',(#402));
#404=FACE_BOUND('',#403,.T.);
#405=ADVANCED_FACE('',(#393,#404),#382,.F.);
#406=CARTESIAN_POINT('',(-14.157500000000001,0.0,6.000000000000001));
#407=DIRECTION('',(0.0,0.0,-1.0));
#408=DIRECTION('',(-1.0,0.0,0.0));
#409=AXIS2_PLACEMENT_3D('',#406,#407,#408);
#410=PLANE('',#409);
#411=ORIENTED_EDGE('',*,*,#300,.F.);
#412=EDGE_LOOP('',(#411));
#413=FACE_OUTER_BOUND('',#412,.T.);
#414=ORIENTED_EDGE('',*,*,#352,.T.);
#415=EDGE_LOOP('',(#414));
#416=FACE_BOUND('',#415,.T.);
#417=ADVANCED_FACE('',(#413,#416),#410,.F.);
#418=CARTESIAN_POINT('',(14.157500000000001,0.0,6.000000000000001));
#419=DIRECTION('',(0.0,0.0,-1.0));
#420=DIRECTION('',(-1.0,0.0,0.0));
#421=AXIS2_PLACEMENT_3D('',#418,#419,#420);
#422=PLANE('',#421);
#423=ORIENTED_EDGE('',*,*,#212,.F.);
#424=EDGE_LOOP('',(#423));
#425=FACE_OUTER_BOUND('',#424,.T.);
#426=ORIENTED_EDGE('',*,*,#401,.T.);
#427=EDGE_LOOP('',(#426));
#428=FACE_BOUND('',#427,.T.);
#429=ADVANCED_FACE('',(#425,#428),#422,.F.);
#430=CARTESIAN_POINT('',(-14.157500000000001,6.500000000000000,0.0));
#431=DIRECTION('',(0.0,1.0,0.0));
#432=DIRECTION('',(0.0,0.0,1.0));
#433=AXIS2_PLACEMENT_3D('',#430,#431,#432);
#434=PLANE('',#433);
#435=ORIENTED_EDGE('',*,*,#157,.T.);
#436=CARTESIAN_POINT('',(14.157500000000001,6.500000000000000,0.0));
#437=VERTEX_POINT('',#436);
#438=CARTESIAN_POINT('',(14.157500000000001,6.500000000000000,0.0));
#439=DIRECTION('',(0.0,0.0,1.0));
#440=VECTOR('',#439,3.000000000000000);
#441=LINE('',#438,#440);
#442=EDGE_CURVE('',#437,#152,#441,.T.);
#443=ORIENTED_EDGE('',*,*,#442,.F.);
#444=CARTESIAN_POINT('',(-14.157500000000001,6.500000000000000,0.0));
#445=VERTEX_POINT('',#444);
#446=CARTESIAN_POINT('',(14.157500000000001,6.500000000000000,0.0));
#447=DIRECTION('',(-1.0,0.0,0.0));
#448=VECTOR('',#447,28.315000000000001);
#449=LINE('',#446,#448);
#450=EDGE_CURVE('',#437,#445,#449,.T.);
#451=ORIENTED_EDGE('',*,*,#450,.T.);
#452=CARTESIAN_POINT('',(-14.157500000000001,6.500000000000000,0.0));
#453=DIRECTION('',(0.0,0.0,1.0));
#454=VECTOR('',#453,3.000000000000000);
#455=LINE('',#452,#454);
#456=EDGE_CURVE('',#445,#150,#455,.T.);
#457=ORIENTED_EDGE('',*,*,#456,.T.);
#458=EDGE_LOOP('',(#435,#443,#451,#457));
#459=FACE_OUTER_BOUND('',#458,.T.);
#460=ADVANCED_FACE('',(#459),#434,.T.);
#461=CARTESIAN_POINT('',(14.157500000000001,0.0,0.0));
#462=DIRECTION('',(0.0,0.0,1.0));
#463=DIRECTION('',(0.0,-1.0,0.0));
#464=AXIS2_PLACEMENT_3D('',#461,#462,#463);
#465=CYLINDRICAL_SURFACE('',#464,6.500000000000002);
#466=ORIENTED_EDGE('',*,*,#181,.T.);
#467=CARTESIAN_POINT('',(14.157500000000001,-6.499999999999999,0.0));
#468=VERTEX_POINT('',#467);
#469=CARTESIAN_POINT('',(14.157500000000001,-6.499999999999999,0.0));
#470=DIRECTION('',(0.0,0.0,1.0));
#471=VECTOR('',#470,3.000000000000000);
#472=LINE('',#469,#471);
#473=EDGE_CURVE('',#468,#169,#472,.T.);
#474=ORIENTED_EDGE('',*,*,#473,.F.);
#475=CARTESIAN_POINT('',(14.157500000000001,0.0,0.0));
#476=DIRECTION('',(0.0,0.0,1.0));
#477=DIRECTION('',(0.0,-1.0,0.0));
#478=AXIS2_PLACEMENT_3D('',#475,#476,#477);
#479=CIRCLE('',#478,6.500000000000002);
#480=EDGE_CURVE('',#468,#437,#479,.T.);
#481=ORIENTED_EDGE('',*,*,#480,.T.);
#482=ORIENTED_EDGE('',*,*,#442,.T.);
#483=EDGE_LOOP('',(#466,#474,#481,#482));
#484=FACE_OUTER_BOUND('',#483,.T.);
#485=ADVANCED_FACE('',(#484),#465,.T.);
#486=CARTESIAN_POINT('',(14.157500000000001,-6.499999999999999,0.0));
#487=DIRECTION('',(0.0,-1.0,0.0));
#488=DIRECTION('',(0.0,0.0,-1.0));
#489=AXIS2_PLACEMENT_3D('',#486,#487,#488);
#490=PLANE('',#489);
#491=ORIENTED_EDGE('',*,*,#174,.T.);
#492=CARTESIAN_POINT('',(-14.157500000000001,-6.499999999999999,0.0));
#493=VERTEX_POINT('',#492);
#494=CARTESIAN_POINT('',(-14.157500000000001,-6.499999999999999,0.0));
#495=DIRECTION('',(0.0,0.0,1.0));
#496=VECTOR('',#495,3.000000000000000);
#497=LINE('',#494,#496);
#498=EDGE_CURVE('',#493,#160,#497,.T.);
#499=ORIENTED_EDGE('',*,*,#498,.F.);
#500=CARTESIAN_POINT('',(-14.157500000000001,-6.499999999999999,0.0));
#501=DIRECTION('',(1.0,0.0,0.0));
#502=VECTOR('',#501,28.315000000000001);
#503=LINE('',#500,#502);
#504=EDGE_CURVE('',#493,#468,#503,.T.);
#505=ORIENTED_EDGE('',*,*,#504,.T.);
#506=ORIENTED_EDGE('',*,*,#473,.T.);
#507=EDGE_LOOP('',(#491,#499,#505,#506));
#508=FACE_OUTER_BOUND('',#507,.T.);
#509=ADVANCED_FACE('',(#508),#490,.T.);
#510=CARTESIAN_POINT('',(-14.157500000000001,0.0,0.0));
#511=DIRECTION('',(0.0,0.0,1.0));
#512=DIRECTION('',(0.0,1.0,0.0));
#513=AXIS2_PLACEMENT_3D('',#510,#511,#512);
#514=CYLINDRICAL_SURFACE('',#513,6.499999999999994);
#515=ORIENTED_EDGE('',*,*,#166,.T.);
#516=ORIENTED_EDGE('',*,*,#456,.F.);
#517=CARTESIAN_POINT('',(-14.157500000000001,0.0,0.0));
#518=DIRECTION('',(0.0,0.0,1.0));
#519=DIRECTION('',(0.0,1.0,0.0));
#520=AXIS2_PLACEMENT_3D('',#517,#518,#519);
#521=CIRCLE('',#520,6.499999999999994);
#522=EDGE_CURVE('',#445,#493,#521,.T.);
#523=ORIENTED_EDGE('',*,*,#522,.T.);
#524=ORIENTED_EDGE('',*,*,#498,.T.);
#525=EDGE_LOOP('',(#515,#516,#523,#524));
#526=FACE_OUTER_BOUND('',#525,.T.);
#527=ADVANCED_FACE('',(#526),#514,.T.);
#528=CARTESIAN_POINT('',(6.106227E-015,2.775558E-016,0.0));
#529=DIRECTION('',(0.0,0.0,1.0));
#530=DIRECTION('',(1.0,0.0,0.0));
#531=AXIS2_PLACEMENT_3D('',#528,#529,#530);
#532=PLANE('',#531);
#533=ORIENTED_EDGE('',*,*,#522,.F.);
#534=ORIENTED_EDGE('',*,*,#450,.F.);
#535=ORIENTED_EDGE('',*,*,#480,.F.);
#536=ORIENTED_EDGE('',*,*,#504,.F.);
#537=EDGE_LOOP('',(#533,#534,#535,#536));
#538=FACE_OUTER_BOUND('',#537,.T.);
#539=ORIENTED_EDGE('',*,*,#341,.T.);
#540=EDGE_LOOP('',(#539));
#541=FACE_BOUND('',#540,.T.);
#542=ORIENTED_EDGE('',*,*,#390,.T.);
#543=EDGE_LOOP('',(#542));
#544=FACE_BOUND('',#543,.T.);
#545=ADVANCED_FACE('',(#538,#541,#544),#532,.F.);
#546=CLOSED_SHELL('',(#143,#199,#219,#287,#307,#356,#405,#417,#429,#460,#485,#509,#527,#545));
#547=MANIFOLD_SOLID_BREP('',#546);
#548=COLOUR_RGB('Metall - Stahl',0.639216005802155,0.639216005802155,0.686275005340576);
#549=FILL_AREA_STYLE_COLOUR('Metall - Stahl',#548);
#550=FILL_AREA_STYLE('Metall - Stahl',(#549));
#551=SURFACE_STYLE_FILL_AREA(#550);
#552=SURFACE_SIDE_STYLE('Metall - Stahl',(#551));
#553=SURFACE_STYLE_USAGE(.BOTH.,#552);
#554=PRESENTATION_STYLE_ASSIGNMENT((#553));
#555=STYLED_ITEM('',(#554),#547);
#556=MECHANICAL_DESIGN_GEOMETRIC_PRESENTATION_REPRESENTATION('',(#555),#36);
#557=ADVANCED_BREP_SHAPE_REPRESENTATION('ABSR',(#547),#36);
#558=SHAPE_REPRESENTATION_RELATIONSHIP('SRR','None',#557,#41);
ENDSEC;
END-ISO-10303-21;
