ISO-10303-21;
HEADER;
/****************************************************************
 * Generated by software with PDE/Lib inside                    *
 * PDElib Version v51a, created Thu 12/14/2006                  *
 * International Technegroup Inc. (www.iti-oh.com)              *
 ****************************************************************/
FILE_DESCRIPTION((''),'2;1');
FILE_NAME('J:\\Downloadzeichnungen\\Sven\\Neuer Ordner\\CUA100\\CUA100.stp','2009-03-12T16:24:36',('hasers'),(''),'Autodesk Inventor 2008','Autodesk Inventor 2008','');
FILE_SCHEMA(('AUTOMOTIVE_DESIGN { 1 0 10303 214 1 1 1 1 }'));
ENDSEC;
DATA;
#5=APPLICATION_CONTEXT('automotive design');
#6=APPLICATION_PROTOCOL_DEFINITION('International Standard','automotive_design',2001,#5);
#7=PRODUCT_CONTEXT('',#5,'mechanical');
#8=PRODUCT('CUA100','CUA100',$,(#7));
#9=PRODUCT_RELATED_PRODUCT_CATEGORY('part',$,(#8));
#10=PRODUCT_DEFINITION_FORMATION('',$,#8);
#11=PRODUCT_DEFINITION_CONTEXT('part definition',#5,'design');
#12=PRODUCT_DEFINITION('',$,#10,#11);
#18=(NAMED_UNIT(*)PLANE_ANGLE_UNIT()SI_UNIT($,.RADIAN.));
#19=DIMENSIONAL_EXPONENTS(0.0,0.0,0.0,0.0,0.0,0.0,0.0);
#20=PLANE_ANGLE_MEASURE_WITH_UNIT(PLANE_ANGLE_MEASURE(0.017453292500000),#18);
#24=(CONVERSION_BASED_UNIT('DEGREE',#20)NAMED_UNIT(#19)PLANE_ANGLE_UNIT());
#28=(NAMED_UNIT(*)SI_UNIT($,.STERADIAN.)SOLID_ANGLE_UNIT());
#32=(LENGTH_UNIT()NAMED_UNIT(*)SI_UNIT(.MILLI.,.METRE.));
#34=UNCERTAINTY_MEASURE_WITH_UNIT(LENGTH_MEASURE(0.010000000000000),#32,'DISTANCE_ACCURACY_VALUE','');
#36=(GEOMETRIC_REPRESENTATION_CONTEXT(3)GLOBAL_UNCERTAINTY_ASSIGNED_CONTEXT((#34))GLOBAL_UNIT_ASSIGNED_CONTEXT((#24,#28,#32))REPRESENTATION_CONTEXT('None','None'));
#37=AXIS2_PLACEMENT_3D('',#38,#39,#40);
#38=CARTESIAN_POINT('',(0.0,0.0,0.0));
#39=DIRECTION('',(0.0,0.0,1.0));
#40=DIRECTION('',(1.0,0.0,0.0));
#41=SHAPE_REPRESENTATION('',(#37,#280),#36);
#42=PRODUCT_DEFINITION_SHAPE('','',#12);
#43=SHAPE_DEFINITION_REPRESENTATION(#42,#41);
#44=APPLICATION_CONTEXT('automotive design');
#45=APPLICATION_PROTOCOL_DEFINITION('International Standard','automotive_design',2001,#44);
#46=PRODUCT_CONTEXT('',#44,'mechanical');
#47=PRODUCT('CU [Title [Summary]=100]','CU [Title [Summary]=100]',$,(#46));
#48=PRODUCT_RELATED_PRODUCT_CATEGORY('part',$,(#47));
#49=PRODUCT_DEFINITION_FORMATION('',$,#47);
#50=PRODUCT_DEFINITION_CONTEXT('part definition',#44,'design');
#51=PRODUCT_DEFINITION('',$,#49,#50);
#57=(NAMED_UNIT(*)PLANE_ANGLE_UNIT()SI_UNIT($,.RADIAN.));
#58=DIMENSIONAL_EXPONENTS(0.0,0.0,0.0,0.0,0.0,0.0,0.0);
#59=PLANE_ANGLE_MEASURE_WITH_UNIT(PLANE_ANGLE_MEASURE(0.017453292500000),#57);
#63=(CONVERSION_BASED_UNIT('DEGREE',#59)NAMED_UNIT(#58)PLANE_ANGLE_UNIT());
#67=(NAMED_UNIT(*)SI_UNIT($,.STERADIAN.)SOLID_ANGLE_UNIT());
#71=(LENGTH_UNIT()NAMED_UNIT(*)SI_UNIT(.MILLI.,.METRE.));
#73=UNCERTAINTY_MEASURE_WITH_UNIT(LENGTH_MEASURE(0.010000000000000),#71,'DISTANCE_ACCURACY_VALUE','');
#75=(GEOMETRIC_REPRESENTATION_CONTEXT(3)GLOBAL_UNCERTAINTY_ASSIGNED_CONTEXT((#73))GLOBAL_UNIT_ASSIGNED_CONTEXT((#63,#67,#71))REPRESENTATION_CONTEXT('None','None'));
#76=AXIS2_PLACEMENT_3D('',#77,#78,#79);
#77=CARTESIAN_POINT('',(0.0,0.0,0.0));
#78=DIRECTION('',(0.0,0.0,1.0));
#79=DIRECTION('',(1.0,0.0,0.0));
#80=SHAPE_REPRESENTATION('',(#76),#75);
#81=PRODUCT_DEFINITION_SHAPE('','',#51);
#82=SHAPE_DEFINITION_REPRESENTATION(#81,#80);
#88=(NAMED_UNIT(*)PLANE_ANGLE_UNIT()SI_UNIT($,.RADIAN.));
#89=DIMENSIONAL_EXPONENTS(0.0,0.0,0.0,0.0,0.0,0.0,0.0);
#90=PLANE_ANGLE_MEASURE_WITH_UNIT(PLANE_ANGLE_MEASURE(0.017453292500000),#88);
#94=(CONVERSION_BASED_UNIT('DEGREE',#90)NAMED_UNIT(#89)PLANE_ANGLE_UNIT());
#98=(NAMED_UNIT(*)SI_UNIT($,.STERADIAN.)SOLID_ANGLE_UNIT());
#102=(LENGTH_UNIT()NAMED_UNIT(*)SI_UNIT(.MILLI.,.METRE.));
#104=UNCERTAINTY_MEASURE_WITH_UNIT(LENGTH_MEASURE(0.000001000000000),#102,'DISTANCE_ACCURACY_VALUE','');
#106=(GEOMETRIC_REPRESENTATION_CONTEXT(3)GLOBAL_UNCERTAINTY_ASSIGNED_CONTEXT((#104))GLOBAL_UNIT_ASSIGNED_CONTEXT((#94,#98,#102))REPRESENTATION_CONTEXT('','3D'));
#107=CARTESIAN_POINT('',(0.0,0.0,0.750000000000000));
#108=DIRECTION('',(0.0,0.0,-1.0));
#109=DIRECTION('',(-1.0,0.0,0.0));
#110=AXIS2_PLACEMENT_3D('',#107,#108,#109);
#111=CONICAL_SURFACE('',#110,59.750000000000000,44.999999999999901);
#112=CARTESIAN_POINT('',(59.500000000000000,-7.286408E-015,1.0));
#113=VERTEX_POINT('',#112);
#114=CARTESIAN_POINT('',(0.0,0.0,1.0));
#115=DIRECTION('',(0.0,0.0,-1.0));
#116=DIRECTION('',(-1.0,0.0,0.0));
#117=AXIS2_PLACEMENT_3D('',#114,#115,#116);
#118=CIRCLE('',#117,59.500000000000000);
#119=EDGE_CURVE('',#113,#113,#118,.T.);
#120=ORIENTED_EDGE('',*,*,#119,.T.);
#121=EDGE_LOOP('',(#120));
#122=FACE_OUTER_BOUND('',#121,.T.);
#123=CARTESIAN_POINT('',(60.0,7.347638E-015,0.500000000000000));
#124=VERTEX_POINT('',#123);
#125=CARTESIAN_POINT('',(0.0,0.0,0.500000000000000));
#126=DIRECTION('',(0.0,0.0,1.0));
#127=DIRECTION('',(-1.0,0.0,0.0));
#128=AXIS2_PLACEMENT_3D('',#125,#126,#127);
#129=CIRCLE('',#128,60.0);
#130=EDGE_CURVE('',#124,#124,#129,.T.);
#131=ORIENTED_EDGE('',*,*,#130,.T.);
#132=EDGE_LOOP('',(#131));
#133=FACE_BOUND('',#132,.T.);
#134=ADVANCED_FACE('',(#122,#133),#111,.T.);
#135=CARTESIAN_POINT('',(0.0,0.0,0.0));
#136=DIRECTION('',(0.0,0.0,1.0));
#137=DIRECTION('',(-1.0,0.0,0.0));
#138=AXIS2_PLACEMENT_3D('',#135,#136,#137);
#139=CYLINDRICAL_SURFACE('',#138,60.0);
#140=CARTESIAN_POINT('',(60.0,-7.347638E-015,-0.500000000000000));
#141=VERTEX_POINT('',#140);
#142=CARTESIAN_POINT('',(0.0,0.0,-0.500000000000000));
#143=DIRECTION('',(0.0,0.0,-1.0));
#144=DIRECTION('',(-1.0,0.0,0.0));
#145=AXIS2_PLACEMENT_3D('',#142,#143,#144);
#146=CIRCLE('',#145,60.0);
#147=EDGE_CURVE('',#141,#141,#146,.T.);
#148=ORIENTED_EDGE('',*,*,#147,.F.);
#149=EDGE_LOOP('',(#148));
#150=FACE_OUTER_BOUND('',#149,.T.);
#151=ORIENTED_EDGE('',*,*,#130,.F.);
#152=EDGE_LOOP('',(#151));
#153=FACE_BOUND('',#152,.T.);
#154=ADVANCED_FACE('',(#150,#153),#139,.T.);
#155=CARTESIAN_POINT('',(0.0,0.0,1.0));
#156=DIRECTION('',(0.0,0.0,-1.0));
#157=DIRECTION('',(-1.0,0.0,0.0));
#158=AXIS2_PLACEMENT_3D('',#155,#156,#157);
#159=PLANE('',#158);
#160=ORIENTED_EDGE('',*,*,#119,.F.);
#161=EDGE_LOOP('',(#160));
#162=FACE_OUTER_BOUND('',#161,.T.);
#163=CARTESIAN_POINT('',(51.000000000000007,6.245492E-015,1.0));
#164=VERTEX_POINT('',#163);
#165=CARTESIAN_POINT('',(0.0,0.0,1.0));
#166=DIRECTION('',(0.0,0.0,1.0));
#167=DIRECTION('',(-1.0,0.0,0.0));
#168=AXIS2_PLACEMENT_3D('',#165,#166,#167);
#169=CIRCLE('',#168,51.000000000000007);
#170=EDGE_CURVE('',#164,#164,#169,.T.);
#171=ORIENTED_EDGE('',*,*,#170,.F.);
#172=EDGE_LOOP('',(#171));
#173=FACE_BOUND('',#172,.T.);
#174=ADVANCED_FACE('',(#162,#173),#159,.F.);
#175=CARTESIAN_POINT('',(0.0,0.0,-0.750000000000000));
#176=DIRECTION('',(0.0,0.0,1.0));
#177=DIRECTION('',(-1.0,0.0,0.0));
#178=AXIS2_PLACEMENT_3D('',#175,#176,#177);
#179=CONICAL_SURFACE('',#178,59.750000000000000,44.999999999999901);
#180=CARTESIAN_POINT('',(59.500000000000000,7.286408E-015,-1.0));
#181=VERTEX_POINT('',#180);
#182=CARTESIAN_POINT('',(0.0,0.0,-1.0));
#183=DIRECTION('',(0.0,0.0,1.0));
#184=DIRECTION('',(-1.0,0.0,0.0));
#185=AXIS2_PLACEMENT_3D('',#182,#183,#184);
#186=CIRCLE('',#185,59.500000000000000);
#187=EDGE_CURVE('',#181,#181,#186,.T.);
#188=ORIENTED_EDGE('',*,*,#187,.T.);
#189=EDGE_LOOP('',(#188));
#190=FACE_OUTER_BOUND('',#189,.T.);
#191=ORIENTED_EDGE('',*,*,#147,.T.);
#192=EDGE_LOOP('',(#191));
#193=FACE_BOUND('',#192,.T.);
#194=ADVANCED_FACE('',(#190,#193),#179,.T.);
#195=CARTESIAN_POINT('',(0.0,0.0,-1.0));
#196=DIRECTION('',(0.0,0.0,-1.0));
#197=DIRECTION('',(-1.0,0.0,0.0));
#198=AXIS2_PLACEMENT_3D('',#195,#196,#197);
#199=PLANE('',#198);
#200=ORIENTED_EDGE('',*,*,#187,.F.);
#201=EDGE_LOOP('',(#200));
#202=FACE_OUTER_BOUND('',#201,.T.);
#203=CARTESIAN_POINT('',(51.000000000000007,-6.245492E-015,-1.0));
#204=VERTEX_POINT('',#203);
#205=CARTESIAN_POINT('',(0.0,0.0,-1.0));
#206=DIRECTION('',(0.0,0.0,-1.0));
#207=DIRECTION('',(-1.0,0.0,0.0));
#208=AXIS2_PLACEMENT_3D('',#205,#206,#207);
#209=CIRCLE('',#208,51.000000000000007);
#210=EDGE_CURVE('',#204,#204,#209,.T.);
#211=ORIENTED_EDGE('',*,*,#210,.F.);
#212=EDGE_LOOP('',(#211));
#213=FACE_BOUND('',#212,.T.);
#214=ADVANCED_FACE('',(#202,#213),#199,.T.);
#215=CARTESIAN_POINT('',(0.0,0.0,-0.750000000000000));
#216=DIRECTION('',(0.0,0.0,-1.0));
#217=DIRECTION('',(-1.0,0.0,0.0));
#218=AXIS2_PLACEMENT_3D('',#215,#216,#217);
#219=CONICAL_SURFACE('',#218,50.750000000000014,44.999999999999901);
#220=CARTESIAN_POINT('',(50.500000000000007,6.184262E-015,-0.500000000000000));
#221=VERTEX_POINT('',#220);
#222=CARTESIAN_POINT('',(0.0,0.0,-0.500000000000000));
#223=DIRECTION('',(0.0,0.0,1.0));
#224=DIRECTION('',(-1.0,0.0,0.0));
#225=AXIS2_PLACEMENT_3D('',#222,#223,#224);
#226=CIRCLE('',#225,50.500000000000007);
#227=EDGE_CURVE('',#221,#221,#226,.T.);
#228=ORIENTED_EDGE('',*,*,#227,.T.);
#229=EDGE_LOOP('',(#228));
#230=FACE_OUTER_BOUND('',#229,.T.);
#231=ORIENTED_EDGE('',*,*,#210,.T.);
#232=EDGE_LOOP('',(#231));
#233=FACE_BOUND('',#232,.T.);
#234=ADVANCED_FACE('',(#230,#233),#219,.F.);
#235=CARTESIAN_POINT('',(0.0,0.0,0.0));
#236=DIRECTION('',(0.0,0.0,1.0));
#237=DIRECTION('',(-1.0,0.0,0.0));
#238=AXIS2_PLACEMENT_3D('',#235,#236,#237);
#239=CYLINDRICAL_SURFACE('',#238,50.500000000000007);
#240=CARTESIAN_POINT('',(50.500000000000007,-6.184262E-015,0.500000000000000));
#241=VERTEX_POINT('',#240);
#242=CARTESIAN_POINT('',(0.0,0.0,0.500000000000000));
#243=DIRECTION('',(0.0,0.0,-1.0));
#244=DIRECTION('',(-1.0,0.0,0.0));
#245=AXIS2_PLACEMENT_3D('',#242,#243,#244);
#246=CIRCLE('',#245,50.500000000000007);
#247=EDGE_CURVE('',#241,#241,#246,.T.);
#248=ORIENTED_EDGE('',*,*,#247,.F.);
#249=EDGE_LOOP('',(#248));
#250=FACE_OUTER_BOUND('',#249,.T.);
#251=ORIENTED_EDGE('',*,*,#227,.F.);
#252=EDGE_LOOP('',(#251));
#253=FACE_BOUND('',#252,.T.);
#254=ADVANCED_FACE('',(#250,#253),#239,.F.);
#255=CARTESIAN_POINT('',(0.0,0.0,0.750000000000000));
#256=DIRECTION('',(0.0,0.0,1.0));
#257=DIRECTION('',(-1.0,0.0,0.0));
#258=AXIS2_PLACEMENT_3D('',#255,#256,#257);
#259=CONICAL_SURFACE('',#258,50.750000000000014,44.999999999999901);
#260=ORIENTED_EDGE('',*,*,#247,.T.);
#261=EDGE_LOOP('',(#260));
#262=FACE_OUTER_BOUND('',#261,.T.);
#263=ORIENTED_EDGE('',*,*,#170,.T.);
#264=EDGE_LOOP('',(#263));
#265=FACE_BOUND('',#264,.T.);
#266=ADVANCED_FACE('',(#262,#265),#259,.F.);
#267=CLOSED_SHELL('',(#134,#154,#174,#194,#214,#234,#254,#266));
#268=MANIFOLD_SOLID_BREP('',#267);
#269=COLOUR_RGB('Kupfer',0.658824026584625,0.349020004272461,0.125489994883537);
#270=FILL_AREA_STYLE_COLOUR('Kupfer',#269);
#271=FILL_AREA_STYLE('Kupfer',(#270));
#272=SURFACE_STYLE_FILL_AREA(#271);
#273=SURFACE_SIDE_STYLE('Kupfer',(#272));
#274=SURFACE_STYLE_USAGE(.BOTH.,#273);
#275=PRESENTATION_STYLE_ASSIGNMENT((#274));
#276=STYLED_ITEM('',(#275),#268);
#277=MECHANICAL_DESIGN_GEOMETRIC_PRESENTATION_REPRESENTATION('',(#276),#36);
#278=ADVANCED_BREP_SHAPE_REPRESENTATION('ABSR',(#268),#75);
#279=SHAPE_REPRESENTATION_RELATIONSHIP('SRR','None',#278,#80);
#280=AXIS2_PLACEMENT_3D('',#281,#282,#283);
#281=CARTESIAN_POINT('',(0.0,0.0,0.0));
#282=DIRECTION('',(0.0,0.0,1.0));
#283=DIRECTION('',(1.0,0.0,0.0));
#284=NEXT_ASSEMBLY_USAGE_OCCURRENCE('CU [Title [Summary]=100]:1','CU [Title [Summary]=100]:1','CU [Title [Summary]=100]:1',#12,#51,'CU [Title [Summary]=100]:1');
#285=PRODUCT_DEFINITION_SHAPE('CU [Title [Summary]=100]:1','CU [Title [Summary]=100]:1',#284);
#286=ITEM_DEFINED_TRANSFORMATION('CU [Title [Summary]=100]:1','CU [Title [Summary]=100]:1',#76,#280);
#290=(REPRESENTATION_RELATIONSHIP('CU [Title [Summary]=100]:1','CU [Title [Summary]=100]:1',#80,#41)REPRESENTATION_RELATIONSHIP_WITH_TRANSFORMATION(#286)SHAPE_REPRESENTATION_RELATIONSHIP());
#291=CONTEXT_DEPENDENT_SHAPE_REPRESENTATION(#290,#285);
ENDSEC;
END-ISO-10303-21;
