ISO-10303-21;
HEADER;
FILE_DESCRIPTION((''),'2;1');
FILE_NAME('OPTO_BEND_JIG_UPPER_GUIDE','2006-07-31T',('ericcan'),(
'Lawrence Berkeley National Lab'),
'PRO/ENGINEER BY PARAMETRIC TECHNOLOGY CORPORATION, 2004280',
'PRO/ENGINEER BY PARAMETRIC TECHNOLOGY CORPORATION, 2004280','');
FILE_SCHEMA(('CONFIG_CONTROL_DESIGN'));
ENDSEC;
DATA;
#1=DIRECTION('',(-1.E0,0.E0,0.E0));
#2=VECTOR('',#1,3.5E0);
#3=CARTESIAN_POINT('',(0.E0,1.47715E1,0.E0));
#4=LINE('',#3,#2);
#5=DIRECTION('',(0.E0,1.E0,0.E0));
#6=VECTOR('',#5,4.32285E1);
#7=CARTESIAN_POINT('',(0.E0,1.47715E1,0.E0));
#8=LINE('',#7,#6);
#9=CARTESIAN_POINT('',(-1.05E1,5.8E1,0.E0));
#10=DIRECTION('',(0.E0,0.E0,1.E0));
#11=DIRECTION('',(1.E0,0.E0,0.E0));
#12=AXIS2_PLACEMENT_3D('',#9,#10,#11);
#14=DIRECTION('',(-1.E0,0.E0,0.E0));
#15=VECTOR('',#14,1.08875E2);
#16=CARTESIAN_POINT('',(-1.05E1,6.85E1,0.E0));
#17=LINE('',#16,#15);
#18=CARTESIAN_POINT('',(-1.19375E2,5.8E1,0.E0));
#19=DIRECTION('',(0.E0,0.E0,1.E0));
#20=DIRECTION('',(0.E0,1.E0,0.E0));
#21=AXIS2_PLACEMENT_3D('',#18,#19,#20);
#23=DIRECTION('',(-1.391731009601E-1,-9.902680687416E-1,0.E0));
#24=VECTOR('',#23,6.004567797045E1);
#25=CARTESIAN_POINT('',(-1.297728147218E2,5.946131756008E1,0.E0));
#26=LINE('',#25,#24);
#27=DIRECTION('',(1.E0,0.E0,0.E0));
#28=VECTOR('',#27,1.346295579242E2);
#29=CARTESIAN_POINT('',(-1.381295579242E2,0.E0,0.E0));
#30=LINE('',#29,#28);
#31=DIRECTION('',(0.E0,1.E0,0.E0));
#32=VECTOR('',#31,1.47715E1);
#33=CARTESIAN_POINT('',(-3.5E0,0.E0,0.E0));
#34=LINE('',#33,#32);
#35=CARTESIAN_POINT('',(-3.5E0,2.47715E1,6.5E1));
#36=DIRECTION('',(-1.E0,0.E0,0.E0));
#37=DIRECTION('',(0.E0,-1.E0,0.E0));
#38=AXIS2_PLACEMENT_3D('',#35,#36,#37);
#40=DIRECTION('',(0.E0,0.E0,1.E0));
#41=VECTOR('',#40,6.5E1);
#42=CARTESIAN_POINT('',(-3.5E0,1.47715E1,0.E0));
#43=LINE('',#42,#41);
#44=DIRECTION('',(0.E0,0.E0,1.E0));
#45=VECTOR('',#44,8.E0);
#46=CARTESIAN_POINT('',(-1.034E2,0.E0,7.5E1));
#47=LINE('',#46,#45);
#48=DIRECTION('',(0.E0,0.E0,1.E0));
#49=VECTOR('',#48,7.5E1);
#50=CARTESIAN_POINT('',(-3.5E0,0.E0,0.E0));
#51=LINE('',#50,#49);
#52=DIRECTION('',(0.E0,0.E0,1.E0));
#53=VECTOR('',#52,7.5E1);
#54=CARTESIAN_POINT('',(-1.381295579242E2,0.E0,0.E0));
#55=LINE('',#54,#53);
#56=DIRECTION('',(0.E0,1.E0,0.E0));
#57=VECTOR('',#56,4.E1);
#58=CARTESIAN_POINT('',(-2.85E1,0.E0,7.5E1));
#59=LINE('',#58,#57);
#60=CARTESIAN_POINT('',(-3.85E1,4.E1,7.5E1));
#61=DIRECTION('',(0.E0,0.E0,1.E0));
#62=DIRECTION('',(1.E0,0.E0,0.E0));
#63=AXIS2_PLACEMENT_3D('',#60,#61,#62);
#65=DIRECTION('',(-1.E0,0.E0,0.E0));
#66=VECTOR('',#65,5.49E1);
#67=CARTESIAN_POINT('',(-3.85E1,5.E1,7.5E1));
#68=LINE('',#67,#66);
#69=CARTESIAN_POINT('',(-9.34E1,4.E1,7.5E1));
#70=DIRECTION('',(0.E0,0.E0,1.E0));
#71=DIRECTION('',(0.E0,1.E0,0.E0));
#72=AXIS2_PLACEMENT_3D('',#69,#70,#71);
#74=DIRECTION('',(0.E0,1.E0,0.E0));
#75=VECTOR('',#74,4.E1);
#76=CARTESIAN_POINT('',(-1.034E2,0.E0,7.5E1));
#77=LINE('',#76,#75);
#78=DIRECTION('',(1.E0,0.E0,0.E0));
#79=VECTOR('',#78,3.472955792418E1);
#80=CARTESIAN_POINT('',(-1.381295579242E2,0.E0,7.5E1));
#81=LINE('',#80,#79);
#82=DIRECTION('',(-1.391731009601E-1,-9.902680687416E-1,0.E0));
#83=VECTOR('',#82,6.004567797045E1);
#84=CARTESIAN_POINT('',(-1.297728147218E2,5.946131756008E1,7.5E1));
#85=LINE('',#84,#83);
#86=CARTESIAN_POINT('',(-1.19375E2,5.8E1,7.5E1));
#87=DIRECTION('',(0.E0,0.E0,1.E0));
#88=DIRECTION('',(0.E0,1.E0,0.E0));
#89=AXIS2_PLACEMENT_3D('',#86,#87,#88);
#91=DIRECTION('',(-1.E0,0.E0,0.E0));
#92=VECTOR('',#91,1.08875E2);
#93=CARTESIAN_POINT('',(-1.05E1,6.85E1,7.5E1));
#94=LINE('',#93,#92);
#95=CARTESIAN_POINT('',(-1.05E1,5.8E1,7.5E1));
#96=DIRECTION('',(0.E0,0.E0,1.E0));
#97=DIRECTION('',(1.E0,0.E0,0.E0));
#98=AXIS2_PLACEMENT_3D('',#95,#96,#97);
#100=DIRECTION('',(0.E0,1.E0,0.E0));
#101=VECTOR('',#100,3.32285E1);
#102=CARTESIAN_POINT('',(0.E0,2.47715E1,7.5E1));
#103=LINE('',#102,#101);
#104=DIRECTION('',(1.E0,0.E0,0.E0));
#105=VECTOR('',#104,3.5E0);
#106=CARTESIAN_POINT('',(-3.5E0,2.47715E1,7.5E1));
#107=LINE('',#106,#105);
#108=DIRECTION('',(0.E0,1.E0,0.E0));
#109=VECTOR('',#108,2.47715E1);
#110=CARTESIAN_POINT('',(-3.5E0,0.E0,7.5E1));
#111=LINE('',#110,#109);
#112=DIRECTION('',(1.E0,0.E0,0.E0));
#113=VECTOR('',#112,2.5E1);
#114=CARTESIAN_POINT('',(-2.85E1,0.E0,7.5E1));
#115=LINE('',#114,#113);
#116=DIRECTION('',(0.E0,0.E0,1.E0));
#117=VECTOR('',#116,8.E0);
#118=CARTESIAN_POINT('',(-2.85E1,0.E0,7.5E1));
#119=LINE('',#118,#117);
#120=DIRECTION('',(0.E0,1.E0,0.E0));
#121=VECTOR('',#120,4.E1);
#122=CARTESIAN_POINT('',(-2.85E1,0.E0,8.3E1));
#123=LINE('',#122,#121);
#124=DIRECTION('',(1.E0,0.E0,0.E0));
#125=VECTOR('',#124,7.49E1);
#126=CARTESIAN_POINT('',(-1.034E2,0.E0,8.3E1));
#127=LINE('',#126,#125);
#128=DIRECTION('',(0.E0,-1.E0,0.E0));
#129=VECTOR('',#128,4.E1);
#130=CARTESIAN_POINT('',(-1.034E2,4.E1,8.3E1));
#131=LINE('',#130,#129);
#132=CARTESIAN_POINT('',(-9.34E1,4.E1,8.3E1));
#133=DIRECTION('',(0.E0,0.E0,1.E0));
#134=DIRECTION('',(0.E0,1.E0,0.E0));
#135=AXIS2_PLACEMENT_3D('',#132,#133,#134);
#137=DIRECTION('',(-1.E0,0.E0,0.E0));
#138=VECTOR('',#137,5.49E1);
#139=CARTESIAN_POINT('',(-3.85E1,5.E1,8.3E1));
#140=LINE('',#139,#138);
#141=CARTESIAN_POINT('',(-3.85E1,4.E1,8.3E1));
#142=DIRECTION('',(0.E0,0.E0,1.E0));
#143=DIRECTION('',(1.E0,0.E0,0.E0));
#144=AXIS2_PLACEMENT_3D('',#141,#142,#143);
#146=DIRECTION('',(0.E0,0.E0,1.E0));
#147=VECTOR('',#146,8.E0);
#148=CARTESIAN_POINT('',(-1.034E2,4.E1,7.5E1));
#149=LINE('',#148,#147);
#150=DIRECTION('',(0.E0,0.E0,1.E0));
#151=VECTOR('',#150,8.E0);
#152=CARTESIAN_POINT('',(-9.34E1,5.E1,7.5E1));
#153=LINE('',#152,#151);
#154=DIRECTION('',(0.E0,0.E0,1.E0));
#155=VECTOR('',#154,8.E0);
#156=CARTESIAN_POINT('',(-3.85E1,5.E1,7.5E1));
#157=LINE('',#156,#155);
#158=DIRECTION('',(0.E0,0.E0,1.E0));
#159=VECTOR('',#158,8.E0);
#160=CARTESIAN_POINT('',(-2.85E1,4.E1,7.5E1));
#161=LINE('',#160,#159);
#162=DIRECTION('',(0.E0,0.E0,1.E0));
#163=VECTOR('',#162,7.5E1);
#164=CARTESIAN_POINT('',(-1.297728147218E2,5.946131756008E1,0.E0));
#165=LINE('',#164,#163);
#166=DIRECTION('',(0.E0,0.E0,1.E0));
#167=VECTOR('',#166,7.5E1);
#168=CARTESIAN_POINT('',(-1.19375E2,6.85E1,0.E0));
#169=LINE('',#168,#167);
#170=DIRECTION('',(0.E0,0.E0,1.E0));
#171=VECTOR('',#170,7.5E1);
#172=CARTESIAN_POINT('',(-1.05E1,6.85E1,0.E0));
#173=LINE('',#172,#171);
#174=DIRECTION('',(0.E0,0.E0,1.E0));
#175=VECTOR('',#174,7.5E1);
#176=CARTESIAN_POINT('',(0.E0,5.8E1,0.E0));
#177=LINE('',#176,#175);
#178=DIRECTION('',(0.E0,0.E0,1.E0));
#179=VECTOR('',#178,6.5E1);
#180=CARTESIAN_POINT('',(0.E0,1.47715E1,0.E0));
#181=LINE('',#180,#179);
#182=CARTESIAN_POINT('',(0.E0,2.47715E1,6.5E1));
#183=DIRECTION('',(1.E0,0.E0,0.E0));
#184=DIRECTION('',(0.E0,0.E0,1.E0));
#185=AXIS2_PLACEMENT_3D('',#182,#183,#184);
#187=DIRECTION('',(-1.E0,0.E0,0.E0));
#188=VECTOR('',#187,3.5E0);
#189=CARTESIAN_POINT('',(0.E0,1.47715E1,6.5E1));
#190=LINE('',#189,#188);
#191=CARTESIAN_POINT('',(0.E0,5.8E1,0.E0));
#192=CARTESIAN_POINT('',(-1.05E1,6.85E1,0.E0));
#193=VERTEX_POINT('',#191);
#194=VERTEX_POINT('',#192);
#195=CARTESIAN_POINT('',(-1.19375E2,6.85E1,0.E0));
#196=VERTEX_POINT('',#195);
#197=CARTESIAN_POINT('',(-1.297728147218E2,5.946131756008E1,0.E0));
#198=VERTEX_POINT('',#197);
#199=CARTESIAN_POINT('',(-1.381295579242E2,0.E0,0.E0));
#200=VERTEX_POINT('',#199);
#201=CARTESIAN_POINT('',(0.E0,5.8E1,7.5E1));
#202=CARTESIAN_POINT('',(-1.05E1,6.85E1,7.5E1));
#203=VERTEX_POINT('',#201);
#204=VERTEX_POINT('',#202);
#205=CARTESIAN_POINT('',(-1.19375E2,6.85E1,7.5E1));
#206=VERTEX_POINT('',#205);
#207=CARTESIAN_POINT('',(-1.297728147218E2,5.946131756008E1,7.5E1));
#208=VERTEX_POINT('',#207);
#209=CARTESIAN_POINT('',(-1.381295579242E2,0.E0,7.5E1));
#210=VERTEX_POINT('',#209);
#211=CARTESIAN_POINT('',(0.E0,1.47715E1,0.E0));
#212=CARTESIAN_POINT('',(-3.5E0,1.47715E1,0.E0));
#213=VERTEX_POINT('',#211);
#214=VERTEX_POINT('',#212);
#215=CARTESIAN_POINT('',(-3.5E0,2.47715E1,7.5E1));
#216=CARTESIAN_POINT('',(0.E0,2.47715E1,7.5E1));
#217=VERTEX_POINT('',#215);
#218=VERTEX_POINT('',#216);
#219=CARTESIAN_POINT('',(0.E0,1.47715E1,6.5E1));
#220=VERTEX_POINT('',#219);
#221=CARTESIAN_POINT('',(-3.5E0,0.E0,0.E0));
#222=VERTEX_POINT('',#221);
#223=CARTESIAN_POINT('',(-3.5E0,0.E0,7.5E1));
#224=VERTEX_POINT('',#223);
#225=CARTESIAN_POINT('',(-3.5E0,1.47715E1,6.5E1));
#226=VERTEX_POINT('',#225);
#227=CARTESIAN_POINT('',(-2.85E1,0.E0,8.3E1));
#228=CARTESIAN_POINT('',(-2.85E1,4.E1,8.3E1));
#229=VERTEX_POINT('',#227);
#230=VERTEX_POINT('',#228);
#231=CARTESIAN_POINT('',(-3.85E1,5.E1,8.3E1));
#232=VERTEX_POINT('',#231);
#233=CARTESIAN_POINT('',(-9.34E1,5.E1,8.3E1));
#234=VERTEX_POINT('',#233);
#235=CARTESIAN_POINT('',(-1.034E2,4.E1,8.3E1));
#236=VERTEX_POINT('',#235);
#237=CARTESIAN_POINT('',(-1.034E2,0.E0,8.3E1));
#238=VERTEX_POINT('',#237);
#239=CARTESIAN_POINT('',(-2.85E1,0.E0,7.5E1));
#240=CARTESIAN_POINT('',(-2.85E1,4.E1,7.5E1));
#241=VERTEX_POINT('',#239);
#242=VERTEX_POINT('',#240);
#243=CARTESIAN_POINT('',(-3.85E1,5.E1,7.5E1));
#244=VERTEX_POINT('',#243);
#245=CARTESIAN_POINT('',(-9.34E1,5.E1,7.5E1));
#246=VERTEX_POINT('',#245);
#247=CARTESIAN_POINT('',(-1.034E2,4.E1,7.5E1));
#248=VERTEX_POINT('',#247);
#249=CARTESIAN_POINT('',(-1.034E2,0.E0,7.5E1));
#250=VERTEX_POINT('',#249);
#251=CARTESIAN_POINT('',(0.E0,0.E0,0.E0));
#252=DIRECTION('',(0.E0,0.E0,1.E0));
#253=DIRECTION('',(1.E0,0.E0,0.E0));
#254=AXIS2_PLACEMENT_3D('',#251,#252,#253);
#255=PLANE('',#254);
#257=ORIENTED_EDGE('',*,*,#256,.F.);
#259=ORIENTED_EDGE('',*,*,#258,.T.);
#261=ORIENTED_EDGE('',*,*,#260,.T.);
#263=ORIENTED_EDGE('',*,*,#262,.T.);
#265=ORIENTED_EDGE('',*,*,#264,.T.);
#267=ORIENTED_EDGE('',*,*,#266,.T.);
#269=ORIENTED_EDGE('',*,*,#268,.T.);
#271=ORIENTED_EDGE('',*,*,#270,.T.);
#272=EDGE_LOOP('',(#257,#259,#261,#263,#265,#267,#269,#271));
#273=FACE_OUTER_BOUND('',#272,.F.);
#274=ADVANCED_FACE('',(#273),#255,.F.);
#275=CARTESIAN_POINT('',(0.E0,1.47715E1,0.E0));
#276=DIRECTION('',(0.E0,1.E0,0.E0));
#277=DIRECTION('',(0.E0,0.E0,1.E0));
#278=AXIS2_PLACEMENT_3D('',#275,#276,#277);
#279=PLANE('',#278);
#280=ORIENTED_EDGE('',*,*,#256,.T.);
#282=ORIENTED_EDGE('',*,*,#281,.T.);
#284=ORIENTED_EDGE('',*,*,#283,.F.);
#286=ORIENTED_EDGE('',*,*,#285,.F.);
#287=EDGE_LOOP('',(#280,#282,#284,#286));
#288=FACE_OUTER_BOUND('',#287,.F.);
#289=ADVANCED_FACE('',(#288),#279,.F.);
#290=CARTESIAN_POINT('',(-3.5E0,0.E0,0.E0));
#291=DIRECTION('',(1.E0,0.E0,0.E0));
#292=DIRECTION('',(0.E0,0.E0,-1.E0));
#293=AXIS2_PLACEMENT_3D('',#290,#291,#292);
#294=PLANE('',#293);
#295=ORIENTED_EDGE('',*,*,#270,.F.);
#297=ORIENTED_EDGE('',*,*,#296,.T.);
#299=ORIENTED_EDGE('',*,*,#298,.T.);
#301=ORIENTED_EDGE('',*,*,#300,.F.);
#302=ORIENTED_EDGE('',*,*,#281,.F.);
#303=EDGE_LOOP('',(#295,#297,#299,#301,#302));
#304=FACE_OUTER_BOUND('',#303,.F.);
#305=ADVANCED_FACE('',(#304),#294,.T.);
#306=CARTESIAN_POINT('',(-1.381295579242E2,0.E0,0.E0));
#307=DIRECTION('',(0.E0,-1.E0,0.E0));
#308=DIRECTION('',(1.E0,0.E0,0.E0));
#309=AXIS2_PLACEMENT_3D('',#306,#307,#308);
#310=PLANE('',#309);
#312=ORIENTED_EDGE('',*,*,#311,.T.);
#314=ORIENTED_EDGE('',*,*,#313,.T.);
#316=ORIENTED_EDGE('',*,*,#315,.T.);
#318=ORIENTED_EDGE('',*,*,#317,.F.);
#320=ORIENTED_EDGE('',*,*,#319,.T.);
#321=ORIENTED_EDGE('',*,*,#296,.F.);
#322=ORIENTED_EDGE('',*,*,#268,.F.);
#324=ORIENTED_EDGE('',*,*,#323,.T.);
#325=EDGE_LOOP('',(#312,#314,#316,#318,#320,#321,#322,#324));
#326=FACE_OUTER_BOUND('',#325,.F.);
#327=ADVANCED_FACE('',(#326),#310,.T.);
#328=CARTESIAN_POINT('',(0.E0,0.E0,7.5E1));
#329=DIRECTION('',(0.E0,0.E0,1.E0));
#330=DIRECTION('',(1.E0,0.E0,0.E0));
#331=AXIS2_PLACEMENT_3D('',#328,#329,#330);
#332=PLANE('',#331);
#334=ORIENTED_EDGE('',*,*,#333,.T.);
#336=ORIENTED_EDGE('',*,*,#335,.T.);
#338=ORIENTED_EDGE('',*,*,#337,.T.);
#340=ORIENTED_EDGE('',*,*,#339,.T.);
#342=ORIENTED_EDGE('',*,*,#341,.F.);
#343=ORIENTED_EDGE('',*,*,#311,.F.);
#345=ORIENTED_EDGE('',*,*,#344,.F.);
#347=ORIENTED_EDGE('',*,*,#346,.F.);
#349=ORIENTED_EDGE('',*,*,#348,.F.);
#351=ORIENTED_EDGE('',*,*,#350,.F.);
#353=ORIENTED_EDGE('',*,*,#352,.F.);
#355=ORIENTED_EDGE('',*,*,#354,.F.);
#356=ORIENTED_EDGE('',*,*,#298,.F.);
#357=ORIENTED_EDGE('',*,*,#319,.F.);
#358=EDGE_LOOP('',(#334,#336,#338,#340,#342,#343,#345,#347,#349,#351,#353,#355,
#356,#357));
#359=FACE_OUTER_BOUND('',#358,.F.);
#360=ADVANCED_FACE('',(#359),#332,.T.);
#361=CARTESIAN_POINT('',(-2.85E1,0.E0,7.5E1));
#362=DIRECTION('',(1.E0,0.E0,0.E0));
#363=DIRECTION('',(0.E0,1.E0,0.E0));
#364=AXIS2_PLACEMENT_3D('',#361,#362,#363);
#365=PLANE('',#364);
#366=ORIENTED_EDGE('',*,*,#333,.F.);
#367=ORIENTED_EDGE('',*,*,#317,.T.);
#369=ORIENTED_EDGE('',*,*,#368,.T.);
#371=ORIENTED_EDGE('',*,*,#370,.F.);
#372=EDGE_LOOP('',(#366,#367,#369,#371));
#373=FACE_OUTER_BOUND('',#372,.F.);
#374=ADVANCED_FACE('',(#373),#365,.T.);
#375=CARTESIAN_POINT('',(0.E0,0.E0,8.3E1));
#376=DIRECTION('',(0.E0,0.E0,1.E0));
#377=DIRECTION('',(1.E0,0.E0,0.E0));
#378=AXIS2_PLACEMENT_3D('',#375,#376,#377);
#379=PLANE('',#378);
#380=ORIENTED_EDGE('',*,*,#368,.F.);
#381=ORIENTED_EDGE('',*,*,#315,.F.);
#383=ORIENTED_EDGE('',*,*,#382,.F.);
#385=ORIENTED_EDGE('',*,*,#384,.F.);
#387=ORIENTED_EDGE('',*,*,#386,.F.);
#389=ORIENTED_EDGE('',*,*,#388,.F.);
#390=EDGE_LOOP('',(#380,#381,#383,#385,#387,#389));
#391=FACE_OUTER_BOUND('',#390,.F.);
#392=ADVANCED_FACE('',(#391),#379,.T.);
#393=CARTESIAN_POINT('',(-1.034E2,4.E1,7.5E1));
#394=DIRECTION('',(-1.E0,0.E0,0.E0));
#395=DIRECTION('',(0.E0,-1.E0,0.E0));
#396=AXIS2_PLACEMENT_3D('',#393,#394,#395);
#397=PLANE('',#396);
#398=ORIENTED_EDGE('',*,*,#341,.T.);
#400=ORIENTED_EDGE('',*,*,#399,.T.);
#401=ORIENTED_EDGE('',*,*,#382,.T.);
#402=ORIENTED_EDGE('',*,*,#313,.F.);
#403=EDGE_LOOP('',(#398,#400,#401,#402));
#404=FACE_OUTER_BOUND('',#403,.F.);
#405=ADVANCED_FACE('',(#404),#397,.T.);
#406=CARTESIAN_POINT('',(-9.34E1,4.E1,7.5E1));
#407=DIRECTION('',(0.E0,0.E0,1.E0));
#408=DIRECTION('',(1.E0,0.E0,0.E0));
#409=AXIS2_PLACEMENT_3D('',#406,#407,#408);
#410=CYLINDRICAL_SURFACE('',#409,1.E1);
#411=ORIENTED_EDGE('',*,*,#339,.F.);
#413=ORIENTED_EDGE('',*,*,#412,.T.);
#414=ORIENTED_EDGE('',*,*,#384,.T.);
#415=ORIENTED_EDGE('',*,*,#399,.F.);
#416=EDGE_LOOP('',(#411,#413,#414,#415));
#417=FACE_OUTER_BOUND('',#416,.F.);
#418=ADVANCED_FACE('',(#417),#410,.T.);
#419=CARTESIAN_POINT('',(-3.85E1,5.E1,7.5E1));
#420=DIRECTION('',(0.E0,1.E0,0.E0));
#421=DIRECTION('',(-1.E0,0.E0,0.E0));
#422=AXIS2_PLACEMENT_3D('',#419,#420,#421);
#423=PLANE('',#422);
#424=ORIENTED_EDGE('',*,*,#337,.F.);
#426=ORIENTED_EDGE('',*,*,#425,.T.);
#427=ORIENTED_EDGE('',*,*,#386,.T.);
#428=ORIENTED_EDGE('',*,*,#412,.F.);
#429=EDGE_LOOP('',(#424,#426,#427,#428));
#430=FACE_OUTER_BOUND('',#429,.F.);
#431=ADVANCED_FACE('',(#430),#423,.T.);
#432=CARTESIAN_POINT('',(-3.85E1,4.E1,7.5E1));
#433=DIRECTION('',(0.E0,0.E0,1.E0));
#434=DIRECTION('',(1.E0,0.E0,0.E0));
#435=AXIS2_PLACEMENT_3D('',#432,#433,#434);
#436=CYLINDRICAL_SURFACE('',#435,1.E1);
#437=ORIENTED_EDGE('',*,*,#335,.F.);
#438=ORIENTED_EDGE('',*,*,#370,.T.);
#439=ORIENTED_EDGE('',*,*,#388,.T.);
#440=ORIENTED_EDGE('',*,*,#425,.F.);
#441=EDGE_LOOP('',(#437,#438,#439,#440));
#442=FACE_OUTER_BOUND('',#441,.F.);
#443=ADVANCED_FACE('',(#442),#436,.T.);
#444=CARTESIAN_POINT('',(-1.297728147218E2,5.946131756008E1,0.E0));
#445=DIRECTION('',(-9.902680687416E-1,1.391731009601E-1,0.E0));
#446=DIRECTION('',(-1.391731009601E-1,-9.902680687416E-1,0.E0));
#447=AXIS2_PLACEMENT_3D('',#444,#445,#446);
#448=PLANE('',#447);
#449=ORIENTED_EDGE('',*,*,#266,.F.);
#451=ORIENTED_EDGE('',*,*,#450,.T.);
#452=ORIENTED_EDGE('',*,*,#344,.T.);
#453=ORIENTED_EDGE('',*,*,#323,.F.);
#454=EDGE_LOOP('',(#449,#451,#452,#453));
#455=FACE_OUTER_BOUND('',#454,.F.);
#456=ADVANCED_FACE('',(#455),#448,.T.);
#457=CARTESIAN_POINT('',(-1.19375E2,5.8E1,0.E0));
#458=DIRECTION('',(0.E0,0.E0,1.E0));
#459=DIRECTION('',(1.E0,0.E0,0.E0));
#460=AXIS2_PLACEMENT_3D('',#457,#458,#459);
#461=CYLINDRICAL_SURFACE('',#460,1.05E1);
#462=ORIENTED_EDGE('',*,*,#264,.F.);
#464=ORIENTED_EDGE('',*,*,#463,.T.);
#465=ORIENTED_EDGE('',*,*,#346,.T.);
#466=ORIENTED_EDGE('',*,*,#450,.F.);
#467=EDGE_LOOP('',(#462,#464,#465,#466));
#468=FACE_OUTER_BOUND('',#467,.F.);
#469=ADVANCED_FACE('',(#468),#461,.T.);
#470=CARTESIAN_POINT('',(-1.05E1,6.85E1,0.E0));
#471=DIRECTION('',(0.E0,1.E0,0.E0));
#472=DIRECTION('',(-1.E0,0.E0,0.E0));
#473=AXIS2_PLACEMENT_3D('',#470,#471,#472);
#474=PLANE('',#473);
#475=ORIENTED_EDGE('',*,*,#262,.F.);
#477=ORIENTED_EDGE('',*,*,#476,.T.);
#478=ORIENTED_EDGE('',*,*,#348,.T.);
#479=ORIENTED_EDGE('',*,*,#463,.F.);
#480=EDGE_LOOP('',(#475,#477,#478,#479));
#481=FACE_OUTER_BOUND('',#480,.F.);
#482=ADVANCED_FACE('',(#481),#474,.T.);
#483=CARTESIAN_POINT('',(-1.05E1,5.8E1,0.E0));
#484=DIRECTION('',(0.E0,0.E0,1.E0));
#485=DIRECTION('',(1.E0,0.E0,0.E0));
#486=AXIS2_PLACEMENT_3D('',#483,#484,#485);
#487=CYLINDRICAL_SURFACE('',#486,1.05E1);
#488=ORIENTED_EDGE('',*,*,#260,.F.);
#490=ORIENTED_EDGE('',*,*,#489,.T.);
#491=ORIENTED_EDGE('',*,*,#350,.T.);
#492=ORIENTED_EDGE('',*,*,#476,.F.);
#493=EDGE_LOOP('',(#488,#490,#491,#492));
#494=FACE_OUTER_BOUND('',#493,.F.);
#495=ADVANCED_FACE('',(#494),#487,.T.);
#496=CARTESIAN_POINT('',(0.E0,0.E0,0.E0));
#497=DIRECTION('',(1.E0,0.E0,0.E0));
#498=DIRECTION('',(0.E0,1.E0,0.E0));
#499=AXIS2_PLACEMENT_3D('',#496,#497,#498);
#500=PLANE('',#499);
#501=ORIENTED_EDGE('',*,*,#285,.T.);
#503=ORIENTED_EDGE('',*,*,#502,.F.);
#504=ORIENTED_EDGE('',*,*,#352,.T.);
#505=ORIENTED_EDGE('',*,*,#489,.F.);
#506=ORIENTED_EDGE('',*,*,#258,.F.);
#507=EDGE_LOOP('',(#501,#503,#504,#505,#506));
#508=FACE_OUTER_BOUND('',#507,.F.);
#509=ADVANCED_FACE('',(#508),#500,.T.);
#510=CARTESIAN_POINT('',(0.E0,2.47715E1,6.5E1));
#511=DIRECTION('',(1.E0,0.E0,0.E0));
#512=DIRECTION('',(0.E0,0.E0,-1.E0));
#513=AXIS2_PLACEMENT_3D('',#510,#511,#512);
#514=CYLINDRICAL_SURFACE('',#513,1.E1);
#515=ORIENTED_EDGE('',*,*,#354,.T.);
#516=ORIENTED_EDGE('',*,*,#502,.T.);
#517=ORIENTED_EDGE('',*,*,#283,.T.);
#518=ORIENTED_EDGE('',*,*,#300,.T.);
#519=EDGE_LOOP('',(#515,#516,#517,#518));
#520=FACE_OUTER_BOUND('',#519,.F.);
#521=ADVANCED_FACE('',(#520),#514,.T.);
#522=CLOSED_SHELL('',(#274,#289,#305,#327,#360,#374,#392,#405,#418,#431,#443,
#456,#469,#482,#495,#509,#521));
#523=MANIFOLD_SOLID_BREP('',#522);
#524=(LENGTH_UNIT()NAMED_UNIT(*)SI_UNIT(.MILLI.,.METRE.));
#525=DIMENSIONAL_EXPONENTS(0.E0,0.E0,0.E0,0.E0,0.E0,0.E0,0.E0);
#526=(NAMED_UNIT(*)PLANE_ANGLE_UNIT()SI_UNIT($,.RADIAN.));
#527=PLANE_ANGLE_MEASURE_WITH_UNIT(PLANE_ANGLE_MEASURE(1.745329251994E-2),#526);
#528=(CONVERSION_BASED_UNIT('DEGREE',#527)NAMED_UNIT(#525)PLANE_ANGLE_UNIT());
#529=(NAMED_UNIT(*)SI_UNIT($,.STERADIAN.)SOLID_ANGLE_UNIT());
#530=UNCERTAINTY_MEASURE_WITH_UNIT(LENGTH_MEASURE(1.750958935538E-2),#524,
'closure',
'Maximum model space distance between geometric entities at asserted connectivities');
#531=(GEOMETRIC_REPRESENTATION_CONTEXT(3)GLOBAL_UNCERTAINTY_ASSIGNED_CONTEXT((
#530))GLOBAL_UNIT_ASSIGNED_CONTEXT((#524,#528,#529))REPRESENTATION_CONTEXT
('ID1','3'));
#533=APPLICATION_CONTEXT(
'CONFIGURATION CONTROLLED 3D DESIGNS OF MECHANICAL PARTS AND ASSEMBLIES');
#534=APPLICATION_PROTOCOL_DEFINITION('international standard',
'config_control_design',1994,#533);
#535=DESIGN_CONTEXT('',#533,'design');
#536=MECHANICAL_CONTEXT('',#533,'mechanical');
#537=PRODUCT('OPTO_BEND_JIG_UPPER_GUIDE','OPTO_BEND_JIG_UPPER_GUIDE',
'NOT SPECIFIED',(#536));
#538=PRODUCT_DEFINITION_FORMATION_WITH_SPECIFIED_SOURCE('1','LAST_VERSION',#537,
.MADE.);
#542=PRODUCT_CATEGORY('part','');
#543=PRODUCT_RELATED_PRODUCT_CATEGORY('detail','',(#537));
#544=PRODUCT_CATEGORY_RELATIONSHIP('','',#542,#543);
#545=SECURITY_CLASSIFICATION_LEVEL('unclassified');
#546=SECURITY_CLASSIFICATION('','',#545);
#547=CC_DESIGN_SECURITY_CLASSIFICATION(#546,(#538));
#548=APPROVAL_STATUS('approved');
#549=APPROVAL(#548,'');
#550=CC_DESIGN_APPROVAL(#549,(#546,#538,#539));
#551=CALENDAR_DATE(106,31,7);
#552=COORDINATED_UNIVERSAL_TIME_OFFSET(3,0,.AHEAD.);
#553=LOCAL_TIME(15,1,5.4E1,#552);
#554=DATE_AND_TIME(#551,#553);
#555=APPROVAL_DATE_TIME(#554,#549);
#556=DATE_TIME_ROLE('creation_date');
#557=CC_DESIGN_DATE_AND_TIME_ASSIGNMENT(#554,#556,(#539));
#558=DATE_TIME_ROLE('classification_date');
#559=CC_DESIGN_DATE_AND_TIME_ASSIGNMENT(#554,#558,(#546));
#560=PERSON('UNSPECIFIED','UNSPECIFIED',$,$,$,$);
#561=ORGANIZATION('UNSPECIFIED','UNSPECIFIED','UNSPECIFIED');
#562=PERSON_AND_ORGANIZATION(#560,#561);
#563=APPROVAL_ROLE('approver');
#564=APPROVAL_PERSON_ORGANIZATION(#562,#549,#563);
#565=PERSON_AND_ORGANIZATION_ROLE('creator');
#566=CC_DESIGN_PERSON_AND_ORGANIZATION_ASSIGNMENT(#562,#565,(#538,#539));
#567=PERSON_AND_ORGANIZATION_ROLE('design_supplier');
#568=CC_DESIGN_PERSON_AND_ORGANIZATION_ASSIGNMENT(#562,#567,(#538));
#569=PERSON_AND_ORGANIZATION_ROLE('classification_officer');
#570=CC_DESIGN_PERSON_AND_ORGANIZATION_ASSIGNMENT(#562,#569,(#546));
#571=PERSON_AND_ORGANIZATION_ROLE('design_owner');
#572=CC_DESIGN_PERSON_AND_ORGANIZATION_ASSIGNMENT(#562,#571,(#537));
#13=CIRCLE('',#12,1.05E1);
#22=CIRCLE('',#21,1.05E1);
#39=CIRCLE('',#38,1.E1);
#64=CIRCLE('',#63,1.E1);
#73=CIRCLE('',#72,1.E1);
#90=CIRCLE('',#89,1.05E1);
#99=CIRCLE('',#98,1.05E1);
#136=CIRCLE('',#135,1.E1);
#145=CIRCLE('',#144,1.E1);
#186=CIRCLE('',#185,1.E1);
#256=EDGE_CURVE('',#213,#214,#4,.T.);
#258=EDGE_CURVE('',#213,#193,#8,.T.);
#260=EDGE_CURVE('',#193,#194,#13,.T.);
#262=EDGE_CURVE('',#194,#196,#17,.T.);
#264=EDGE_CURVE('',#196,#198,#22,.T.);
#266=EDGE_CURVE('',#198,#200,#26,.T.);
#268=EDGE_CURVE('',#200,#222,#30,.T.);
#270=EDGE_CURVE('',#222,#214,#34,.T.);
#281=EDGE_CURVE('',#214,#226,#43,.T.);
#283=EDGE_CURVE('',#220,#226,#190,.T.);
#285=EDGE_CURVE('',#213,#220,#181,.T.);
#296=EDGE_CURVE('',#222,#224,#51,.T.);
#298=EDGE_CURVE('',#224,#217,#111,.T.);
#300=EDGE_CURVE('',#226,#217,#39,.T.);
#311=EDGE_CURVE('',#210,#250,#81,.T.);
#313=EDGE_CURVE('',#250,#238,#47,.T.);
#315=EDGE_CURVE('',#238,#229,#127,.T.);
#317=EDGE_CURVE('',#241,#229,#119,.T.);
#319=EDGE_CURVE('',#241,#224,#115,.T.);
#323=EDGE_CURVE('',#200,#210,#55,.T.);
#333=EDGE_CURVE('',#241,#242,#59,.T.);
#335=EDGE_CURVE('',#242,#244,#64,.T.);
#337=EDGE_CURVE('',#244,#246,#68,.T.);
#339=EDGE_CURVE('',#246,#248,#73,.T.);
#341=EDGE_CURVE('',#250,#248,#77,.T.);
#344=EDGE_CURVE('',#208,#210,#85,.T.);
#346=EDGE_CURVE('',#206,#208,#90,.T.);
#348=EDGE_CURVE('',#204,#206,#94,.T.);
#350=EDGE_CURVE('',#203,#204,#99,.T.);
#352=EDGE_CURVE('',#218,#203,#103,.T.);
#354=EDGE_CURVE('',#217,#218,#107,.T.);
#368=EDGE_CURVE('',#229,#230,#123,.T.);
#370=EDGE_CURVE('',#242,#230,#161,.T.);
#382=EDGE_CURVE('',#236,#238,#131,.T.);
#384=EDGE_CURVE('',#234,#236,#136,.T.);
#386=EDGE_CURVE('',#232,#234,#140,.T.);
#388=EDGE_CURVE('',#230,#232,#145,.T.);
#399=EDGE_CURVE('',#248,#236,#149,.T.);
#412=EDGE_CURVE('',#246,#234,#153,.T.);
#425=EDGE_CURVE('',#244,#232,#157,.T.);
#450=EDGE_CURVE('',#198,#208,#165,.T.);
#463=EDGE_CURVE('',#196,#206,#169,.T.);
#476=EDGE_CURVE('',#194,#204,#173,.T.);
#489=EDGE_CURVE('',#193,#203,#177,.T.);
#502=EDGE_CURVE('',#218,#220,#186,.T.);
#532=ADVANCED_BREP_SHAPE_REPRESENTATION('',(#523),#531);
#539=PRODUCT_DEFINITION('design','',#538,#535);
#540=PRODUCT_DEFINITION_SHAPE('','SHAPE FOR OPTO_BEND_JIG_UPPER_GUIDE.',#539);
#541=SHAPE_DEFINITION_REPRESENTATION(#540,#532);
ENDSEC;
END-ISO-10303-21;
